PrimaNota.ru - самый крупный в мире бесплатный архив песенных текстов, аккордов, табулатур и нот


Nonpoint - Everybody Down - текст песни, таба, видео

Регистрация Запомнить меня
Войти через:  Facebook Google Twitter Vk Yandex Mail.ru

Nonpoint - Everybody Down - текст песни, таба, видео

Печатать
Просмотров: 212
Everybody Down - Nonpoint
Album : Vengeance

Tabbed by : Fabianos & Malthe

Intro  (tremolo picked)
d|-----------------------------------------------------------------------|
A|-----------------------------------------------------------------------|
F|-----------------------------------------------------------------------|
C|-----------------------------------------------------------------------|
G|-----------------------------------------------------------------------|
C|00000----33333----1010101010----66666----------------------------------|
                     ^ten's

d|-----------------------------------------------------------------------|
A|-----------------------------------------------------------------------|
F|-----------------------------------------------------------------------|
C|-----------------------------------------------------------------------|
G|-----------------------------------------------------------------------|
C|00000----33333----1010101010----66666x alot!---------------------------|
                     ^ten's

Verse:
d|------------------------------------------------------|----------------|
A|------------------------------------------------------|----------------|
F|------------------------------------------------------|-----------5*---|
C|--------0------------0------------0-------------------|--------0--5*---|
G|0-0-0-0-0----0-0-0-0-0----0-0-0-0-0----------0------0-|0-0-0-0-0-------|
C|0-0-0-0-0----0-0-0-0-0----0-0-0-0-0----0-5b6-0--5b6-0-|0-0-0-0-0-------|x2
  . . . .      . . . .      . . . .                      . . . .

Prechorus:
d|-----------------------------------------------------------------------|
A|-----------------------------------------------------------------------|
F|-----------------------------------------------------------------------|
C|--------------3b-------------------------------------------------------|
G|0-0--3b--0-0-----------------------------------------------------------|
C|0-0------0-0-----------------------------------------------------------|


Chorus:
d|-----------------------------------------------------------------------|
A|-----------------------------------------------------------------------|
F|-----------------------------------------------------------------------|
C|0-0-0-12---0-0-0-12---3-3-3-3-3-3-3-3--5-5-5-5-1-1-1-1-----------------|
G|0-0-0-12---0-0-0-12---3-3-3-3-3-3-3-3--5-5-5-5-1-1-1-1-----------------|
C|0-0-0-12---0-0-0-12---3-3-3-3-3-3-3-3--5-5-5-5-1-1-1-1-----------------|x4
        ^  let ring ^
        ^  Twelve's ^

d|-----------------------------------------------------------------------|
A|-----------------------------------------------------------------------|
F|-----------5*----------------------------------------------------------|
C|-----------5*----------------------------------------------------------|
G|0-0--------------------------------------------------------------------|
C|0-0--------------------------------------------------------------------|

Verse

Pre-Chorus

Chorus

Bridge Part 1:
d|-----------------------------------------------------------------------|
A|-----------------------------------------------------------------------|
F|-----------------------------------------------------------------------|
C|-----------------------------------------------------------------------|
G|0-0---------------0-0---------------0-0---------------0-0--------------|
C|0-0---------------0-0---------------0-0---------------0-0--------------|

d|-----------------------------------------------------------------------|
A|-----------------------------------------------------------------------|
F|-----------------------------------------------------------------------|
C|-----------------------------------------------------------------------|
G|0-0-0-0-----------0-0-0-0-----------0-0-0-0-----------0-0-0-0----------|
C|0-0-0-0-----------0-0-0-0-----------0-0-0-0-----------0-0-0-0----------|

d|-----------------------------------------------------------------------|
A|-----------------------------------------------------------------------|
F|-----------------------------------------------------------------------|
C|-----------------------------------------------------------------------|
G|-----------------------------------------------------------------------|
C|0-0-1p0-0-0-1p0-0-0-1p0-0-10-12----------------------------------------|x4

  Guitar 2 enters with;  (up 'n down strumming continously)
d|-----------------------------------------------------------------------|
A|-----------------------------------------------------------------------|
F|--7---10----9----12----------------------------------------------------|
C|--x----x----x-----x----------------------------------------------------|
G|--5----8----8----10----------------------------------------------------|
C|-----------------------------------------------------------------------|

  Bridge part 2:
      Pattern A       B     C         and D
d|-----------------|-----|-----|-----------------|-----------------------|
A|-----------------|-----|-----|-----------------|-----------------------|
F|-----------------|-----|-----|-----------------|-----------------------|
C|-----------------|--3b-|-----|-----------------|-----------------------|
G|0-0-0-0--0-0-0-0-|-----|--b3-|-------0------0--|-----------------------|
C|0-0-0-0--0-0-0-0-|-----|-----|-0-5b6-0--5b6-0--|-----------------------|

Okay, i know this might look wierd. But it was easier to write like this.
I have separated this part of the Bridge in different patterns, which together will make 
variation of the bridge.
Variation 1 looks like this;
A-A-B-A-D

Variation 2 looks like;
A-C-A-B-A-C-D

end on:
d|----------------|
A|----------------|
F|----------------|
C|----------------|
G|0-0-------------|
C|0-0-------------|

Chorus

End.

Enjoy playing it!!
Добавлено: 04.03.2012
Другие материалы по этой песне:
  • Аккорды и текст

Страница создана 04.03.2012
http://primanota.ru/nonpoint/everybody-down-chords.htm
Привет, Гость.
Предлагаем пройти революционный курс по гитаре.
Подарок от PrimaNota.Ru, забирай!