PrimaNota.ru - самый крупный в мире бесплатный архив песенных текстов, аккордов, табулатур и нот


Nonpoint - Dangerous Waters - таба, видео

Регистрация Запомнить меня
Войти через:  Facebook Google Twitter Vk Yandex Mail.ru

Nonpoint - Dangerous Waters - таба, видео

Печатать
Просмотров: 74
Intro
|------------------------------------------------------------------|
|-tremolo----------------------------------------------------------|
|------------------------------------------------------------------|
|------------------------------------------------------------------|
|------------------------------------------------------------------|
|-0-0-0-0-12-12-0-0-0-0-12-12-0-0-12-12-0-0-0-0-0-0-0-0-15-15-15-15|
  . . . .  .  . . . . .  .  . . .  .  . . . . . . . . .  .  .  .  .
|------------------------------------------------------------------|
|------------------------------------------------------------------|
|------------------------------------------------------------------|
|------------------------------------------------------------------|
|------------------------------------------------------------------|
|-14-14-14-14-0-0-0-0-12-12-0-0-0-0-12-12-0-0-12-12-0-0-0-0-0-0-0-0|
   .  .  .  . . . . .  .  . . . . .  .  . . .  .  . . . . . . . . .
|----------------|
|----------------|
|----------------|
|----------------|
|----------------|
|-3-3-3-3-2-2-2-2| 2x
  . . . . . . . .
Verse
|-------------------------------------------|
|-------------------------------------------|
|-------------------------------------------|
|------------------------------------3-0-2~~|
|-------------------------------------------|
|-0-0-0-0-0-0--0-0-0-0-0-0--0--3--0---------|
  . . . . . .  . . . . . .  .  .  .
|-------------------------------------------|
|-------------------------------------------|
|-------------------------------------------|
|-------------------------------------------|
|-------------------------------------------|
|-0-0-0-0-0-0--0-0-0-0-0-0--0--3--0--3-0-2~~|
  . . . . . .  . . . . . .  .  .  .
|--------------------------------|
|--------------------------------|
|--------------------------------|
|--------------------------------|
|--------------------------------|
|-3-3-3-3-3-3-3-3-5-5-5-5-5-5-5-5|
  . . . . . . . . . . . . . . . .
|-------------------------------------------|
|-------------------------------------------|
|-------------------------------------------|
|------------------------------------3-0-2~~|
|-------------------------------------------|
|-0-0-0-0-0-0--0-0-0-0-0-0--0--3--0---------|
  . . . . . .  . . . . . .  .  .  .
|-------------------------------------------|
|-------------------------------------------|
|-------------------------------------------|
|-------------------------------------------|
|-------------------------------------------|
|-0-0-0-0-0-0--0-0-0-0-0-0--0--3--0--3-0-2~~|
  . . . . . .  . . . . . .  .  .  .
|-------------------------------------------|
|-------------------------------------------|
|-------------------------------------------|
|------------------------------------3-0-2~~|
|-------------------------------------------|
|-0-0-0-0-0-0--0-0-0-0-0-0--0--3--0---------|
  . . . . . .  . . . . . .  .  .  .
|--------------------------------|
|--------------------------------|
|--------------------------------|
|--------------------------------|
|--------------------------------|
|-3-3-3-3-3-3-3-3-5-5-5-5-5-5-5-5|
  . . . . . . . . . . . . . . . .
|-------------------------------not-sure|
|-----------------------------------\/--|
|-----------------------------------*---|
|-----------------------------------7~~~|
|---------------------------------------|
|-0-0-0-0-0-0--0-0-0-0-0-0--0--3--0-----|
  . . . . . .  . . . . . .  .  .  . 
Chorus
|--------------------------------------------|
|--------------------------------------------|
|----------5--------5------3----------5------|
|-0--0-3-0-5--0-3-0-5--0-3-3----------5------|
|-0--0-3-0-3--0-3-0-3--0-3-1----------3------|
|-0--0-3-0----0-3-0----0-3-------------------|

|-------------------------------------------------|
|-------------------------------------------------|
|----------5--------5------3----------5------slide|
|-0--0-3-0-5--0-3-0-5--0-3-3----------5-----------|
|-0--0-3-0-3--0-3-0-3--0-3-1----------3-----------|
|-0--0-3-0----0-3-0----0-3--------------------19\0|

Play Intro

Play Verse 

Play Chorus

Sorry I cant figure out the solo

Play Chorus 

Play Intro
Добавлено: 21.09.2013
Другие материалы по этой песне:
  • Аккорды и текст

Страница создана 21.09.2013
http://primanota.ru/nonpoint/dangerous-waters-chords.htm
Привет, Гость.
Предлагаем пройти революционный курс по гитаре.
Подарок от PrimaNota.Ru, забирай!