PrimaNota.ru - самый крупный в мире бесплатный архив песенных текстов, аккордов, табулатур и нот


Nonnes Troppo Tabs - Le Velo - таба, видео

Регистрация Запомнить меня
Войти через:  Facebook Google Twitter Vk Yandex Mail.ru

Nonnes Troppo Tabs - Le Velo - таба, видео

Печатать
Просмотров: 66
=======
LE VELO
=======
une transcription de Partoche (partoche@caramail.com)


Tous les accords avec barres:
Dm:x57765    Dm-->Dm7:c le petit doigt qui bouge
Dm7:x57568
G:355433     G-->G7:c le petit doigt qui bouge
G7:353463
C:x35553     C-->C*:he oui encore le petit doigt...
C*:x35535
Em:x79987    Em-->Em7:idem...
Em7:x7978 10
A:577655
G#:466544
G#7:464544 G#7-->G#7*:le petit doigt...
G#7*:464546
G:355433   G-->G7?:le petit doigt...
G7?:353453
inro:
-------
   Dm    Dm7 G7     C      C  D#  Dm Dm7 G G7  C     C* C  
e||---5--8---3-3-3--3-3-3-/3-/6-|---5-8--3-3-3-3-3-3-5--3-3-||
B||---6--6---6-6-6--5-5-5-/5-/8-|---6-6--3-6-6-5-5-5-3--5-5-||
G||---7--5---4-4-4--5-5-5-/5-/8-|---7-5--4-4-4-5-5-5-5--5-5-|| (bis)
D||-7--------5-3-3--5-5-5-/5-/8-|-7------5-3-3-5-5-5-5--5-5-||
A||-5--------5-5-5--3-3-3-/3-/6-|-5------5-5-5-3-3-3-3--3-3-||
E||-0--------3-3-3--------/--/--|-0------3-3-3--------------||

/=slide up.

couplet: (meme enchainement que pour l intro)
--------

   Dm    Dm7 G7     C      C  D#  Dm Dm7 G G7  C     C* C  
e||---5--8---3-3-3--3-3-3-/3-/6-|---5-8--3-3-3-3-3-3-5--3-3-|
B||---6--6---3-6-6--5-5-5-/5-/8-|---6-6--3-6-6-5-5-5-3--5-5-|
G||---7--5---4-4-4--5-5-5-/5-/8-|---7-5--4-4-4-5-5-5-5--5-5-| 
D||-7--------5-3-3--5-5-5-/5-/8-|-7------5-3-3-5-5-5-5--5-5-|
A||-5--------5-5-5--3-3-3-/3-/6-|-5------5-5-5-3-3-3-3--3-3-|
E||-0--------3-3-3--------/--/--|-0------3-3-3--------------|
      il avait...                    Et les aimait...

   Em   Em7 A      Dm  Dm7 G#           G     G7?      G#7  G#7* G#7 
e|---7--10--5-5-5--5-5-8---4-4-4-4-4-4--3-3-3-3-3-3-------4-6-4----4-6-4-||
B|---8--8---5-5-5--6-6-6---4-4-4-4-4-4--3-3-3-5-5-5-------4-4-4----4-4-4-||
G|---9--9---6-6-6--7-7-5---5-5-5-5-5-5--4-4-4-4-4-4----5--5-5-5--5-5-5-5-||
D|-9--------7-7-7--7-7-7---6-6-6-6-6-6--5-5-5-3-3-3----4---------4-------||
A|-7--------7-7-7----------6-6-6-6-6-6--5-5-5-5-5-5----6---------6-------||
E|-0--------5-5-5----------4-4-4-4-4-4--3-3-3-3-3-3----4---------4-------||
   Et pour..fesses.dames                  Il...fait...


Dm  Dm7   G7                    C  /C /D#
Il avait  toujours plu aux femmes
Dm Dm7    G7                   C   C* C
Et les aimait  meme un peu trop
Em Em7      A             Dm  Dm7   G#
Et pour les fesses de ces dames
G            G7?             G#7  G#7* G#7
Il se s'rait fait trouer la peau


Quand il mourut il eu le droit
Sous une autre forme de prendre vie
Il reflichit puis decida
de renaitre en velo pour filles

Refrain:
--------
A#7        G#7        A#      G#7
Marguerite et josiane evelyne et viviane 
A#7              G#7         A#7      A7   G#7 G7 
toutes ses amies se frottant sur son epine dor-sale

Couplet:
--------
C'etait pour lui le paradirs
il les prenait dans l'engrenage
parfois meme il avait deux filles 
une sur lui l autre sur le porte bagages


Refrain:
--------
Marguerite et josiane evelyne et viviane 
toutes ses amies se frottant sur son epine dorsale

Couplet:
--------
Puis Marguerite  eut un ami
Qu il eut du mal a encadrer
Car elle le delaissait pour lui
Et n aimait plus que la marche a pied



Refrain:(lent)
--------
Marguerite et josiane evelyne et viviane 
toutes ses amies se frottant sur son epine dorsale

Couplet:
--------
Puis l ami en question s enfuit 
En volant l amour de velo
Qui a son coup de pedale comprit
Que l ami etait un homo

Depuis le pauvre est peint en rose
toute la journee il ronge son frein
plus d'Marguerite ca l"rend morose
Par contre il a tous ses copains

Refrain:
--------
Jean-Robert et Marcel
Philibert et Etienne
Tous ses amis se frottant
Sur son epine dorsale

Jean Rene et filou
Philibert et loulou
Tous ses amis se frottant sur son epine dorsale

(parle)
oh y en avait du monde.....




Добавлено: 30.10.2013
Другие материалы по этой песне:
  • Аккорды и текст

Страница создана 30.10.2013
http://primanota.ru/nonnes-troppo-tabs/le-velo-chords.htm
Привет, Гость.
Предлагаем пройти революционный курс по гитаре.
Подарок от PrimaNota.Ru, забирай!