PrimaNota.ru - самый крупный в мире бесплатный архив песенных текстов, аккордов, табулатур и нот


Non Servium - Punks And Skins - таба, бас-таба, видео

Регистрация Запомнить меня
Войти через:  Facebook Google Twitter Vk Yandex Mail.ru

Non Servium - Punks And Skins - таба, бас-таба, видео

Печатать
Просмотров: 157
Intro:

E|------------------------------------------|
B|------------------------------------------|
G|-7---7---7---10-9-10--7---7---------------|
D|-7---7---7---10-9-10--7---7---8---10-7-10-|
A|-5---5---5---8--7-8---5---5---8---10-7-10-|
E|------------------------------6---8--5-8--| x4

Verse 1:

E|---------------------------------------------------|
B|---------------------------------------------------|
G|-7-7777-7777-777-10-9-10--7-7777-777---------------|
D|-7-7777-7777-777-10-9-10--7-7777-777-8-888-10-7-10-|
A|-5-5555-5555-555-8--7-8---5-5555-555-8-888-10-7-10-|
E|-------------------------------------6-666-8--5-8--| x2

E|------------------------------------------|
B|------------------------------------------|
G|-7---7---7---10-9-10--7---7---------------|
D|-7---7---7---10-9-10--7---7---8---10-7-10-|
A|-5---5---5---8--7-8---5---5---8---10-7-10-|
E|------------------------------6---8--5-8--| x2

E|---------------------------------------------------|
B|---------------------------------------------------|
G|-7-7777-7777-777-10-9-10--7-7777-777---------------|
D|-7-7777-7777-777-10-9-10--7-7777-777-8-888-10-7-10-|
A|-5-5555-5555-555-8--7-8---5-5555-555-8-888-10-7-10-|
E|-------------------------------------6-666-8--5-8--| x2

Interlude:

E|-----------------------------------------------------------------|
B|-----------------------------------------------------------------|
G|-----------------------------------------------------------------|
D|-----------------------------------------------5-7-777-5-7-777-7-|
A|-5-555-7-8-888-7---------5-555-3-5-555-7-8-888-------------------|
E|-----------------8-888-5-----------------------------------------|

E|---------------------------------------------------------|
B|---------------------------------------------------------|
G|-7-777-7-------------------------------------------------|
D|---------7-777-7-----------------------------------------|
A|-----------------8-888-7-5-3-5-----------8-----888-5-7-3-|
E|-------------------------------5-6-666-6-----------------|

E|-----------------------------------------------------------------------------------|
B|-----------------------------------------------------------------------------------|
G|-7-777-777-777-5-7-777-777-777-9-10-101010-101010-101010-9-------------------------| (Palm Mute)
D|-7-777-777-777-5-7-777-777-777-9-10-101010-101010-101010-9-7-777-77-10-101010-1010-|
A|-5-555-555-555-3-5-555-555-555-7-8--8-8-8--8-8-8--8-8-8--7-7-777-77-10-101010-1010-|
E|-----------------------------------------------------------5-555-55-8--8-8-8--8-8--| x2

Verse 2:

E|-----------------------------------------------------------------------|
B|-----------------------------------------------------------------------|
G|-777777777777777-9-101010101010101010101010101010-9-555555555555555-10-|
D|-777777777777777-9-101010101010101010101010101010-9-555555555555555-10-|
A|-555555555555555-7-8-8-8-8-8-8-8-8-8-8-8-8-8-8-8--7-333333333333333-8--|
E|-----------------------------------------------------------------------|

E|---------------------|
B|---------------------|
G|----------55555555-7-|
D|-66666666-55555555-7-|
A|-66666666-33333333-5-|
E|-44444444------------| x2

Verse 3:

E|-------------------------------------------------|
B|-------------------------------------------------|
G|-7777777-9-10101010101010-9-5555555-10------5555-|
D|-7777777-9-10101010101010-9-5555555-10-6666-5555-|
A|-5555555-7-8-8-8-8-8-8-8--7-3333333-8--6666-3333-|
E|---------------------------------------4444------| x2

Verse 4:

E|-------------------------------------------------------------------------------|
B|-------------------------------------------------------------------------------|
G|-5-5-555-555-55-9-10-10-101010-101010-1010-9-5-5-555-555-55-10---------5555-55-|
D|-5-5-555-555-55-9-10-10-101010-101010-1010-9-5-5-555-555-55-10-8-8-888-5555-55-|
A|-3-3-333-333-33-7-8--8--8-8-8--8-8-8--8-8--7-3-3-333-333-33-8--8-8-888-3333-33-|
E|---------------------------------------------------------------6-6-666---------| x3

Verse 2:

E|-----------------------------------------------------------------------|
B|-----------------------------------------------------------------------|
G|-777777777777777-9-101010101010101010101010101010-9-555555555555555-10-|
D|-777777777777777-9-101010101010101010101010101010-9-555555555555555-10-|
A|-555555555555555-7-8-8-8-8-8-8-8-8-8-8-8-8-8-8-8--7-333333333333333-8--|
E|-----------------------------------------------------------------------|

E|---------------------|
B|---------------------|
G|----------55555555---|
D|-66666666-55555555---|
A|-66666666-33333333---|
E|-44444444------------|

Outro:

E|---------------------------------------|      E|-------|
B|---------------------------------------|      B|-------|
G|-7---7-9-10---10-9-5---9-10----5--10-9-|      G|-7-----|
D|-7---7-9-10---10-9-5---9-10-8--5--10-9-|      D|-7-----|
A|-5---5-7-8----8--7-3---7-8--8--3--8--7-|      A|-5-----|
E|----------------------------6----------| x2   E|-------|




                                                                          Lò
                                                 lopunkettone_bmx@hotmail.it
Добавлено: 25.02.2012
Другие материалы по этой песне:
  • Аккорды и текст

Страница создана 25.02.2012
http://primanota.ru/non-servium/punks-and-skins-chords.htm
Привет, Гость.
Предлагаем пройти революционный курс по гитаре.
Подарок от PrimaNota.Ru, забирай!