PrimaNota.ru - самый крупный в мире бесплатный архив песенных текстов, аккордов, табулатур и нот


Nomeansno - Two Lips, Two Lungs And One Tongue - текст песни, таба, бас-таба, видео

Регистрация Запомнить меня
Войти через:  Facebook Google Twitter Vk Yandex Mail.ru

Nomeansno - Two Lips, Two Lungs And One Tongue - текст песни, таба, бас-таба, видео

Печатать
Просмотров: 193
Уроки эстрадного вокала в Санкт-Петербурге
Nomeansno - Two Lips, Two Lungs and One Tongue

INTRO
E||-------------------------|--------------------------|
B||-------------------------|--------------------------|
G||-------------------------|--------------------------|
D||--5----5--5--5--5--5--5--|--5--5--5--5--5--5--5--5--|
A||--5----5--5--5--5--5--5--|--5--5--5--5--5--5--5--5--|
E||--3----3--3--3--3--3--3--|--3--3--3--3--3--3--3--3--|

----------------------------------|----------------------------------|
----------------------------------|----------------------------------|
--11--11--11--11--11--11--11--11--|--11--11--11--11--11--11--11--11--|
--11--11--11--11--11--11--11--11--|--11--11--11--11--11--11--11--11--|
---9---9---9---9---9---9---9---9--|---9---9---9---9---9---9---9---9--|
----------------------------------|----------------------------------|

-------------------------|--------------------------|
-------------------------|--------------------------|
-------------------------|--------------------------|
--5----5--5--5--5--5--5--|--5--5--5--5--5--5--5--5--|
--5----5--5--5--5--5--5--|--5--5--5--5--5--5--5--5--|
--3----3--3--3--3--3--3--|--3--3--3--3--3--3--3--3--|

----------------------------------|----------------------------------|
----------------------------------|----------------------------------|
--11--11--11--11--11--11--11--11--|--11--11--11--11--11--11--11--11--|
--11--11--11--11--11--11--11--11--|--11--11--11--11--11--11--11--11--|
---9---9---9---9---9---9---9---9--|---9---9---9---9---9---9---9---9--|
----------------------------------|----------------------------------|

VERSE
-------------------------|--------------------------|--------------------------|
-------------------------|--------------------------|--------------------------|
-------------------------|--------------------------|--------------------------|
--5----5--5--5--5--5--5--|--5--5--5--5--5--5--5--5--|--4--4--4--4--4--4--4--4--|
--5----5--5--5--5--5--5--|--5--5--5--5--5--5--5--5--|--4--4--4--4--4--4--4--4--|
--3----3--3--3--3--3--3--|--3--3--3--3--3--3--3--3--|--2--2--2--2--2--2--2--2--|

--------------------------|-------------------------|--------------------------|
--------------------------|-------------------------|--------------------------|
--------------------------|-------------------------|--------------------------|
--4--4--4--4--4--4--4--4--|--5----5--5--5--5--5--5--|--5--5--5--5--5--5--5--5--|
--4--4--4--4--4--4--4--4--|--5----5--5--5--5--5--5--|--5--5--5--5--5--5--5--5--|
--2--2--2--2--2--2--2--2--|--3----3--3--3--3--3--3--|--3--3--3--3--3--3--3--3--|

                                                     CHORUS
--------------------------|--------------------------|----------------------|
--------------------------|--------------------------|----------------------|
--------------------------|--------------------------|--9----9----9----9----|
--4--4--4--4--4--4--4--4--|--4--4--4--4--4--4--4--4--|--9----9----9----9----|
--4--4--4--4--4--4--4--4--|--4--4--4--4--4--4--4--4--|--7----7----7----7----|
--2--2--2--2--2--2--2--2--|--2--2--2--2--2--2--2--2--|----------------------|


----------------------|----------------------|---------------------------|
----------------------|----------------------|---------------------------|
--9----9----9----9----|--9----9----9----9----|--9----9----9----9----9----|
--9----9----9----9----|--9----9----9----9----|--9----9----9----9----9----|
--7----7----7----7----|--7----7----7----7----|--7----7----7----7----7----|
----------------------|----------------------|---------------------------|

-------------------------|--------------------------|
-------------------------|--------------------------|
-------------------------|--------------------------|
--5----5--5--5--5--5--5--|--5--5--5--5--5--5--5--5--|
--5----5--5--5--5--5--5--|--5--5--5--5--5--5--5--5--|
--3----3--3--3--3--3--3--|--3--3--3--3--3--3--3--3--|

----------------------------------|----------------------------------|
----------------------------------|----------------------------------|
--11--11--11--11--11--11--11--11--|--11--11--11--11--11--11--11--11--|
--11--11--11--11--11--11--11--11--|--11--11--11--11--11--11--11--11--|
---9---9---9---9---9---9---9---9--|---9---9---9---9---9---9---9---9--|
----------------------------------|----------------------------------|

-------------------------|--------------------------|
-------------------------|--------------------------|
-------------------------|--------------------------|
--5----5--5--5--5--5--5--|--5--5--5--5--5--5--5--5--|
--5----5--5--5--5--5--5--|--5--5--5--5--5--5--5--5--|
--3----3--3--3--3--3--3--|--3--3--3--3--3--3--3--3--|

----------------------------------|----------------------------------|
----------------------------------|----------------------------------|
--11--11--11--11--11--11--11--11--|--11--11--11--11--11--11--11--11--|
--11--11--11--11--11--11--11--11--|--11--11--11--11--11--11--11--11--|
---9---9---9---9---9---9---9---9--|---9---9---9---9---9---9---9---9--|
----------------------------------|----------------------------------|

VERSE
-------------------------|--------------------------|--------------------------|
-------------------------|--------------------------|--------------------------|
-------------------------|--------------------------|--------------------------|
--5----5--5--5--5--5--5--|--5--5--5--5--5--5--5--5--|--4--4--4--4--4--4--4--4--|
--5----5--5--5--5--5--5--|--5--5--5--5--5--5--5--5--|--4--4--4--4--4--4--4--4--|
--3----3--3--3--3--3--3--|--3--3--3--3--3--3--3--3--|--2--2--2--2--2--2--2--2--|

--------------------------|-------------------------|--------------------------|
--------------------------|-------------------------|--------------------------|
--------------------------|-------------------------|--------------------------|
--4--4--4--4--4--4--4--4--|--5----5--5--5--5--5--5--|--5--5--5--5--5--5--5--5--|
--4--4--4--4--4--4--4--4--|--5----5--5--5--5--5--5--|--5--5--5--5--5--5--5--5--|
--2--2--2--2--2--2--2--2--|--3----3--3--3--3--3--3--|--3--3--3--3--3--3--3--3--|

                                                      CHORUS
--------------------------|--------------------------|----------------------|
--------------------------|--------------------------|----------------------|
--------------------------|--------------------------|--9----9----9----9----|
--4--4--4--4--4--4--4--4--|--4--4--4--4--4--4--4--4--|--9----9----9----9----|
--4--4--4--4--4--4--4--4--|--4--4--4--4--4--4--4--4--|--7----7----7----7----|
--2--2--2--2--2--2--2--2--|--2--2--2--2--2--2--2--2--|----------------------|

----------------------|----------------------|---------------------------|
----------------------|----------------------|---------------------------|
--9----9----9----9----|--9----9----9----9----|--9----9----9----9----9----|
--9----9----9----9----|--9----9----9----9----|--9----9----9----9----9----|
--7----7----7----7----|--7----7----7----7----|--7----7----7----7----7----|
----------------------|----------------------|---------------------------|

-------------------------|--------------------------|
-------------------------|--------------------------|
-------------------------|--------------------------|
--5----5--5--5--5--5--5--|--5--5--5--5--5--5--5--5--|
--5----5--5--5--5--5--5--|--5--5--5--5--5--5--5--5--|
--3----3--3--3--3--3--3--|--3--3--3--3--3--3--3--3--|

----------------------------------|----------------------------------|
----------------------------------|----------------------------------|
--11--11--11--11--11--11--11--11--|--11--11--11--11--11--11--11--11--|
--11--11--11--11--11--11--11--11--|--11--11--11--11--11--11--11--11--|
---9---9---9---9---9---9---9---9--|---9---9---9---9---9---9---9---9--|
----------------------------------|----------------------------------|

-------------------------|--------------------------|---------------------|
-------------------------|--------------------------|---------------------|
-------------------------|--------------------------|--11-----------------|
--5----5--5--5--5--5--5--|--5--5--5--5--5--5--5--5--|--11-----------------|
--5----5--5--5--5--5--5--|--5--5--5--5--5--5--5--5--|---9-----------------|
--3----3--3--3--3--3--3--|--3--3--3--3--3--3--3--3--|---------------------|

BRIDGE
---------------------|-----------------------|
--12 bend and hold---|--release--------------|
---------------------|-----------------------|
---------------------|-----------------------|
---------------------|-----------------------|
---------------------|-----------------------|

-------------------|-------------------------|--------------------------|
-------------------|-------------------------|--------------------------|
-------------------|-------------------------|--------------------------|
-------------------|--5----5--5--5--5--5--5--|--5--5--5--5--5--5--5--5--|
-------------------|--5----5--5--5--5--5--5--|--5--5--5--5--5--5--5--5--|
-------------------|--3----3--3--3--3--3--3--|--3--3--3--3--3--3--3--3--|

--------------------------|--------------------------|-------------------------|
--------------------------|--------------------------|-------------------------|
--------------------------|--------------------------|-------------------------|
--4--4--4--4--4--4--4--4--|--4--4--4--4--4--4--4--4--|--5----5--5--5--5--5--5--|
--4--4--4--4--4--4--4--4--|--4--4--4--4--4--4--4--4--|--5----5--5--5--5--5--5--|
--2--2--2--2--2--2--2--2--|--2--2--2--2--2--2--2--2--|--3----3--3--3--3--3--3--|

--------------------------|----------------------------------|
--------------------------|----------------------------------|
--------------------------|--11--11--11--11--11--11--11--11--|
--5--5--5--5--5--5--5--5--|--11--11--11--11--11--11--11--11--|
--5--5--5--5--5--5--5--5--|---9---9---9---9---9---9---9---9--|
--3--3--3--3--3--3--3--3--|----------------------------------|

----------------------------------|-------------------------|
----------------------------------|-------------------------|
--11--11--11--11--11--11--11--11--|-------------------------|
--11--11--11--11--11--11--11--11--|--5----5--5--5--5--5--5--|
---9---9---9---9---9---9---9---9--|--5----5--5--5--5--5--5--|
----------------------------------|--3----3--3--3--3--3--3--|

VERSE
--------------------------|--------------------------|
--------------------------|--------------------------|
--------------------------|--------------------------|
--5--5--5--5--5--5--5--5--|--4--4--4--4--4--4--4--4--|
--5--5--5--5--5--5--5--5--|--4--4--4--4--4--4--4--4--|
--3--3--3--3--3--3--3--3--|--2--2--2--2--2--2--2--2--|

--------------------------|-------------------------|--------------------------|
--------------------------|-------------------------|--------------------------|
--------------------------|-------------------------|--------------------------|
--4--4--4--4--4--4--4--4--|--5----5--5--5--5--5--5--|--5--5--5--5--5--5--5--5--|
--4--4--4--4--4--4--4--4--|--5----5--5--5--5--5--5--|--5--5--5--5--5--5--5--5--|
--2--2--2--2--2--2--2--2--|--3----3--3--3--3--3--3--|--3--3--3--3--3--3--3--3--|

                                                     OUT-CHORUS
--------------------------|--------------------------|----------------------|
--------------------------|--------------------------|----------------------|
--------------------------|--------------------------|--9----9----9----9----|
--4--4--4--4--4--4--4--4--|--4--4--4--4--4--4--4--4--|--9----9----9----9----|
--4--4--4--4--4--4--4--4--|--4--4--4--4--4--4--4--4--|--7----7----7----7----|
--2--2--2--2--2--2--2--2--|--2--2--2--2--2--2--2--2--|----------------------|

----------------------|----------------------|---------------------------|
----------------------|----------------------|---------------------------|
--9----9----9----9----|--9----9----9----9----|--9----9----9----9----9----|
--9----9----9----9----|--9----9----9----9----|--9----9----9----9----9----|
--7----7----7----7----|--7----7----7----7----|--7----7----7----7----7----|
----------------------|----------------------|---------------------------|

----------------------|----------------------|----------------------|
----------------------|----------------------|----------------------|
--9----9----9----9----|--9----9----9----9----|--9----9----9----9----|
--9----9----9----9----|--9----9----9----9----|--9----9----9----9----|
--7----7----7----7----|--7----7----7----7----|--7----7----7----7----|
----------------------|----------------------|----------------------|

---------------------------|----------------------|----------------------|
---------------------------|----------------------|----------------------|
--9----9----9----9----9----|--9----9----9----9----|--9----9----9----9----|
--9----9----9----9----9----|--9----9----9----9----|--9----9----9----9----|
--7----7----7----7----7----|--7----7----7----7----|--7----7----7----7----|
---------------------------|----------------------|----------------------|

----------------------|---------------------------|-------------------|
----------------------|---------------------------|-------------------|
--9----9----9----9----|--9----9----9----9----9----|-------------------|
--9----9----9----9----|--9----9----9----9----9----|-------------------|
--7----7----7----7----|--7----7----7----7----7----|-------------------|
----------------------|---------------------------|-------------------|
Добавлено: 01.08.2015
Другие материалы по этой песне:

Страница создана 14.06.2012
http://primanota.ru/nomeansno/two-lips-two-lungs-and-one-tongue-chords.htm
Привет, Гость.
Предлагаем пройти революционный курс по гитаре.
Подарок от PrimaNota.Ru, забирай!