PrimaNota.ru - самый крупный в мире бесплатный архив песенных текстов, аккордов, табулатур и нот


Nomeansno - The Fall - текст песни, бас-таба, видео

Регистрация Запомнить меня
Войти через:  Facebook Google Twitter Vk Yandex Mail.ru

Nomeansno - The Fall - текст песни, бас-таба, видео

Печатать
Просмотров: 82
NoMeansNo - The Fall

Do you know the meaning of this is love, this is love?

The song is comprised of two main riffs with minor variations. Check my guitar pro tab of the track to get the 
right timings and etc.

Primary/chorus riff:

G----------------|---------------|---------------|--------------|
D----------------|---------------|---------------|--------------|
A-4-3-4-3-2-3-4--|-4-3-2-3--4--3-|-4-3-4-3-2-3-4-|-4-3-2-3-4----|
E----------------|---------------|---------------|-----------3--|

Verse riff:

G-----------------|---------------|
D-----------------|---------------|
A---7-----4-5-x-x-|---7-----4-5---|
E-0---4-6---------|-x---4-6-----4-|

Main variation in the verse riff:

G-----------------|-----------------|
D-----------------|-----------------|
A-----------------|-----------------|
E-x-2-x-2-x-2-x-2-|-x-1-x-1-x-1-x-1-|

Second variation in the verse riff (occurs once)

Verse riff:

G------------------|-----------------|
D------------------|-----------------|
A---7-----4-5-x-55-|-5-4-3-2-1-0-----|
E-0---4-6----------|-------------3-2-|

That's it!
Добавлено: 27.12.2015
Вам также может быть интересно:
Другие материалы по этой песне:

Страница создана 26.07.2012
http://primanota.ru/nomeansno/the-fall-chords.htm
Привет, Гость.
Предлагаем пройти революционный курс по гитаре.
Подарок от PrimaNota.Ru, забирай!