PrimaNota.ru - самый крупный в мире бесплатный архив песенных текстов, аккордов, табулатур и нот


Nomeansno - Rags And Bones - текст песни, таба, видео

Регистрация Запомнить меня
Войти через:  Facebook Google Twitter Vk Yandex Mail.ru

Nomeansno - Rags And Bones - текст песни, таба, видео

Печатать
Просмотров: 53
Уроки эстрадного вокала в Санкт-Петербурге
-------------------------------------------------------------------------------
                             Rags and Bones - NomeansNo
-------------------------------------------------------------------------------
Tabbed by: p1971cuda
E-mail:

Tuning:Standard
e|------------------|
B|------------------|
G|------------------|
D|------------5-5---|
A|-4b~--4b~---5-5---|
E|------------3-3---|

e|-----------------------------------|
B|-----------------------------------|
G|-----------------------------------|X12
D|------3-----5--3-------------------|
A|--\5-----5--------5--4--3--1-------|
E|------------------------------3--3-|

e|---------------------------------------------------------------------------|
B|---------------------------------------------------------------------------|
G|---------------------------------------------------------------------------|
D|--5--3-----5--3-----5--3-----5--3-----5--3-----5--3-----5--3-----5--3------|
A|--------5--------5--------5--------5--------5--------5--------5--------5---|
E|---------------------------------------------------------------------------|

e|-----------------------------------|
B|-----------------------------------|
G|-----------------------------------|X2
D|------3-----5--3-------------------|
A|--/5-----5--------5--4--3--1-------|
E|------------------------------3--3-|


e|--7---7-7-7-7-7-7-7-7--7--7---7---7-7-7-7-7-7-7-7--7----|
B|--7---7-7-7-7-7-7-7-7--7--7---7---7-7-7-7-7-7-7-7--7----|
G|--7---7-7-7-7-7-7-7-7--7--7---7---7-7-7-7-7-7-7-7--7----|X4
D|--7h9-9-9-9-9-9-9-9-9--7--9---7h9-9-9-9-9-9-9-9-9--7----|
A|--------------------------------------------------------|
E|------------------------------------------------------7-|

e|--------------------------------------------------------------|
B|--------------------------------------------------------------|
G|----------5--5----------5-5-----------5-5------5b~----5b~-5-5-|
D|----------5--5----------5-5-----------5-5-----------------5-5-|
A|--4b------3--3-----4b~--3-3---4-xxxxx-3-3---4b~----4b~----3-3-|
E|----------3--3----------3-3-----------3-3-----------------3-3-|

e|-----------------------------------|
B|-----------------------------------|
G|-----------------------------------|X12
D|------3-----5--3-------------------|
A|--/5-----5--------5--4--3--1-------|
E|------------------------------3--3-|


e|--7---7-7-7-7-7-7-7-7--7--7---7---7-7-7-7-7-7-7-7--7----|
B|--7---7-7-7-7-7-7-7-7--7--7---7---7-7-7-7-7-7-7-7--7----|
G|--7---7-7-7-7-7-7-7-7--7--7---7---7-7-7-7-7-7-7-7--7----|X4
D|--7h9-9-9-9-9-9-9-9-9--7--9---7h9-9-9-9-9-9-9-9-9--7----|
A|--------------------------------------------------------|
E|------------------------------------------------------7-|

e|---------------------------------------------------------------|
B|---------------------------------------------------------------|
G|----------5--5----------5-5-----------5-5------5b~----5b~--5-5-|
D|----------5--5----------5-5-----------5-5------------------5-5-|
A|--4b------3--3-----4b~--3-3---4-xxxxx-3-3---4b~----4b~-----3-3-|
E|----------3--3----------3-3-----------3-3------------------3-3-|

e|-------------------------------------------------------------------------|
B|-------------------------------------------------------------------------|
G|---7-6-5-3---------------------------------------------------------------|
D|---8-7-6-4----3-5-3-5---5---5-3------------------------------------------|
A|---------------------------------5--4--3--1-----1-----------1------------|
E|---------------------------------------------3-----3--1--3-----3--1--3---|

e|-----------------------------------------------------------------------------------------|
B|-----------------------------------------------------------------------------------------|
G|-----------------------3-----------------------3-----------------------3-----------------|
D|-----------------------3-----------------------3-----------------------3-----------------|
A|-----1-----1-----1-----------1-----1-----1-----------1-----1-----1-----------1-----1--3b~|
E|--3-----3-----3-----3-----3-----3-----3-----3-----3-----3-----3-----3-----3-----3--------|

e|--------------------------|
B|--------------------------|
G|----------------------3---|
D|----------------------3---|X3
A|-----1-----1-----1--------|
E|-3------3-----3----3------|

e|----------------------------------|
B|----------------------------------|
G|----------------------------------|
D|----------------------------------|
A|-----1-----1-----1----3-3-3--3b-1-|
E|-3------3-----3-------------------|

e|---------------------------------------------------------------------------------------------|
B|---------------------------------------------------------------------------------------------|
G|-----------------------3-----------------------3-----------------------3--------------------3|
D|-----------------------3-----------------------3-----------------------3--------------------3|X4
A|-----1-----1-----1-----------1-----1-----1-----------1-----1-----1-----------1-----1-----1---|
E|--3-----3-----3-----3-----3-----3-----3-----3-----3-----3-----3-----3-----3-----3-----3------|

e|----------------------------------------------------------------|
B|----------------------------------------------------------------|
G|----------5--5----------5-5-----------5-5-------5b~---5b~---5-5-|
D|----------5--5----------5-5-----------5-5-------------------5-5-|
A|--4b~-----3--3----4b~---3-3---4-xxxxx-3-3---4b~----4b~------3-3-|
E|----------3--3----------3-3-----------3-3-------------------3-3-|

e|-----------------------------------|
B|-----------------------------------|
G|-----------------------------------|X8
D|------3-----5--3-------------------|
A|--/5-----5--------5--4--3--1-------|
E|------------------------------3--3-|


e|-------------------------------------------------------------------------|
B|-------------------------------------------------------------------------|
G|-------------------------------------------------------------------------|
D|--5--3-----5--3-----5--3-----5--3-------------------------------------9b~|
A|--------5--------5--------5--------5---5-6-7-5-6-7-5-6-7-7-8-9-7-8-9-----|
E|-------------------------------------------------------------------------|

e|-----------------------------------|
B|-----------------------------------|
G|-----------------------------------|X2
D|------3-----5--3-------------------|
A|--/5-----5--------5--4--3--1-------|
E|------------------------------3--3-|

e|--7---7-7-7-7-7-7-7-7--7--7---7---7-7-7-7-7-7-7-7--7----|
B|--7---7-7-7-7-7-7-7-7--7--7---7---7-7-7-7-7-7-7-7--7----|
G|--7---7-7-7-7-7-7-7-7--7--7---7---7-7-7-7-7-7-7-7--7----|X8
D|--7h9-9-9-9-9-9-9-9-9--7--9---7h9-9-9-9-9-9-9-9-9--7----|
A|--------------------------------------------------------|
E|------------------------------------------------------7-|

e|-------------------------------------------------------------------------|
B|-------------------------------------------------------------------------|
G|---7-6-5-3---------------------------------------------------------------|
D|---8-7-6-4----3-5-3-5---5---5-3------------------------------------------|
A|---------------------------------5--4--3--1-----1-----------1------------|
E|---------------------------------------------3-----3--1--3-----3--1--3---|
************************************

| /   slide up
| \   slide down
| h   hammer-on
| p   pull-off
| ~   vibrato
| +   harmonic
| x   Mute note
| b   Bend
| pb  Pre-bend
| br  Bend release
| pbr Pre-bend release
| brb Bend release bend

************************************
Добавлено: 04.06.2016
Другие материалы по этой песне:

Страница создана 17.06.2012
http://primanota.ru/nomeansno/rags-and-bones-chords.htm
Привет, Гость.
Предлагаем пройти революционный курс по гитаре.
Подарок от PrimaNota.Ru, забирай!