PrimaNota.ru - самый крупный в мире бесплатный архив песенных текстов, аккордов, табулатур и нот


Nomeansno - Happy Bridge - текст песни, таба, бас-таба, видео

Регистрация Запомнить меня
Войти через:  Facebook Google Twitter Vk Yandex Mail.ru

Nomeansno - Happy Bridge - текст песни, таба, бас-таба, видео

Печатать
Просмотров: 186
Nomeansno - Happy Bridge guitar tab

INTRO
E||------------||-------------------------------------------|
B||------------||-------------------------------------------|
G||------------||*------------------------------------------|
D||------------||*------------5p-0-6p-0-5p-0-----------5p-0-|
A||--6---------||---0-5h-6p-0----------------0-5h-6p-0------|
E||--5---------||-------------------------------------------|

 4x 
-------------------------------------------||----------------------------------|
-------------------------------------------||----------------------------------|
------------------------------------------*||----------------------------------|
------------5p-0-6p-0-5p-0-----------5p-0-*||--------------------0-2---3-0-2---|
--0-5h-6p-0----------------0-5h-6p-0-------||--------0-2---0-2-3-----3-------3-|
-------------------------------------------||--0-2-3-----3---------------------|

-----------------------------------||---------------------------------------|
-----------------------------------||---------------------------------------|
--------------------0-1---0-1------||*--------------------------------------|
--------0-1---0-1-2-----2-----2p-0-||*--0-4p-0-0-4p-0-0-4p-0-0-4p-0-0-4h-5--|
--0-1-2-----2----------------------||---------------------------------------|
-----------------------------------||---------------------------------------|

MAIN THEME
4x  
-----------------------------------------||----------------------------|
-----------------------------------------||----------------------------|
----------------------------------------*||--7--7-7-7--7-7--7-7--7--7--|
--0-4p-0-0-4p-0-0-4p-0-0-4p-0-----------*||--0--0-0-0--0-0--0-0--0--0--|
------------------------------2p-0-------||----------------------------|
-----------------------------------2p-0--||----------------------------|

BRIDGE
-----------------------------|----------------------------|
-----------------------------|----------------------------|
--7--7-7-7--7-7--7-7--9-9-9--|--7--7-7-7--7-7--7-7--7--7--|
--0--0-0-0--0-0--0-0--0-0-0--|--0--0-0-0--0-0--0-0--0--0--|
-----------------------------|----------------------------|
-----------------------------|----------------------------|

-----------------------------||---------------------------|
-----------------------------||---------------------------|
--7--7-7-7--7-7--7-7--9-9-9--||*--7--7--7--7--7--7--7--7--|
--0--0-0-0--0-0--0-0--0-0-0--||*--0--0--0--0--0--0--0--0--|
-----------------------------||---------------------------|
-----------------------------||---------------------------|

----------------------------||---------------------------------------|
----------------------------||---------------------------------------|
--7--7--7--7--11--9--11----*||*--------------------------------------|
--0--0--0--0---0--0---0----*||*--0-4p-0-0-4p-0-0-4p-0-0-4p-0-0-4h-5--|
---------------9--7---9-----||---------------------------------------|
----------------------------||---------------------------------------|

MAIN THEME
-----------------------------------------||----------------------------|
-----------------------------------------||----------------------------|
----------------------------------------*||--7--7-7-7--7-7--7-7--7--7--|
--0-4p-0-0-4p-0-0-4p-0-0-4p-0-----------*||--0--0-0-0--0-0--0-0--0--0--|
------------------------------2p-0-------||----------------------------|
-----------------------------------2p-0--||----------------------------|

BRIDGE
-------------------------------|--------------------------------------|
-------------------------------|--------------------------------------|
--7--7-6-6s--4-4s--2-2--2-2----|--9-11-11-11-11--11-11--11-9--11--12--|
--0--0-0-0---0-0---0-0--0-0--0-|--0--0--0--0--0---0--0---0-0---0---0--|
-------------------------------|--------------------------------------|
-------------------------------|--------------------------------------|

--------------------------------|------------------------------|
--------------------------------|------------------------------|
--11--9--11--11S-14--L----14----|--17---16---14---17---16--14--|
---0--0---0---0---0--L-----0----|---0----0----0----0----0---0--|
--------------------------------|------------------------------|
--------------------------------|------------------------------|

------------------------------|
------------------------------|
--17---16---14----16--17---L--|
---0----0----0-----0---0---0--|
------------------------------|
------------------------------|

|----------------------------------------------------||
|---17-19-19-19-19-19-19-19-17-19-19-19-19-19-19-19--||
|*--------------------------------------------------*||
|*--------------------------------------------------*||
|----------------------------------------------------||
|----------------------------------------------------||

--17--17-17-17-17-17-17-17-17--17-17-17-17-17-17-17-|
--17h-19-19-19-19-19-19-19-17h-19-19-19-19-19-19-19-|
----------------------------------------------------|
----------------------------------------------------|
----------------------------------------------------|
----------------------------------------------------|

--17--17-17-17-17-17-17-17-17--17-17-17-17-17-17-17-|
--17h-19-19-19-19-19-19-19-17h-19-19-19-19-19-19-19-|
----------------------------------------------------|
----------------------------------------------------|
----------------------------------------------------|
----------------------------------------------------|

Segue to 'Kill Everyone Now'
------------------------------||
------------------------------||
------------------------------||
--8-8-8-8-8--6--7-7-7-7-7--6--||
--8-8-8-8-8--6--7-7-7-7-7--6--||
--6-6-6-6-6--4--5-5-5-5-5--4--||
Добавлено: 21.07.2015
Другие материалы по этой песне:

Страница создана 22.02.2012
http://primanota.ru/nomeansno/happy-bridge-chords.htm
Привет, Гость.
Предлагаем пройти революционный курс по гитаре.
Подарок от PrimaNota.Ru, забирай!