PrimaNota.ru - самый крупный в мире бесплатный архив песенных текстов, аккордов, табулатур и нот


Nomeansno - Everyday I Start To Ooze - текст песни, бас-таба, видео

Регистрация Запомнить меня
Войти через:  Facebook Google Twitter Vk Yandex Mail.ru

Nomeansno - Everyday I Start To Ooze - текст песни, бас-таба, видео

Печатать
Просмотров: 94
NoMeansNo - Everyday I Start To Ooze

The main riff for most of the song is as follows. The second bar is the various which occurs at the end of
most of the verses:

G-----------------------|-----------------|
D-3-3-3-3-3-------------|-----------------|
A-----------2--3-5-5----|----------0-1-2--|
E-----------------------|-0-1-2-3-4-------|

There's a verse riff variation when he says "I heard they were dismembering people down the street...". This 
then returns to the regular verse riff after the transition which is in the second bar.

G-----------------3--2-----|--------------------------|
D-5-5-5-5-5--2----------3--|-5-5-5-5-5--2-------------|
A---------------3----------|---------------3---4------|
E--------------------------|--------------------------|

The chorus riff is the verse riff, but the transition out of the chorus is:

G-----------------------------3--|
D---------------------3---3-5----|
A--1-1-1-0--0-6-5-3-5---5--------|
E--------------------------------|

The disco funky mid section:

G-------------------------------|
D-----5-----3--------5-----3---5|
A-------3-5---5-3------3-5---5--|
E---3--------------3------------|

The riff at the end of the disco section:

G---------------|---------------|
D---7------5----|----5------3---|
A-8---8--6---6--|--6---6--4---4-|
E---------------|---------------|

G-------------------------------|
D---3-----4-----5-----6-----7---|
A-4---4-5---5-6---6-7---7-8---8-|
E-------------------------------|

Back to the verse/chorus riff until the end!
Добавлено: 07.12.2015
Другие материалы по этой песне:
  • Аккорды и текст

Страница создана 29.03.2012
http://primanota.ru/nomeansno/everyday-i-start-to-ooze-chords.htm
Привет, Гость.
Предлагаем пройти революционный курс по гитаре.
Подарок от PrimaNota.Ru, забирай!