PrimaNota.ru - самый крупный в мире бесплатный архив песенных текстов, аккордов, табулатур и нот


Nomeansno - Dad - текст песни, таба, бас-таба, видео

Регистрация Запомнить меня
Войти через:  Facebook Google Twitter Vk Yandex Mail.ru

Nomeansno - Dad - текст песни, таба, бас-таба, видео

Печатать
Просмотров: 153
"Dad" by NoMeansNo
from Sex Mad
tabbed by Mr. Cancelled (dopasaurusrex@gmail.com)


Standard tuning (e,B,G,D,A,E)

Verse
e------------------------------------|
b------------------------------------|
g------------------------------------|
d-6--6-6-6-6-6-6-4--4-4-4-4-4-4------|
a-6--6-6-6-6-6-6-4--4-4-4-4-4-4------|
e-4--4-4-4-4-4-4-2--2-2-2-2-2-2------|x4

e---------------------------------------------------------------|
b---------------------------------------------------------------|
g-6--6-6-6-6-6-6------------------8--8-8-8-8-8-8----------------|
d-6--6-6-6-6-6-6-7--7-7-7-7-7-7-7-8--8-8-8-8-8-8-9--9-9-9-9-9-9-|
a-4--4-4-4-4-4-4-7--7-7-7-7-7-7-7-6--6-6-6-6-6-6-9--9-9-9-9-9-9-|
e----------------5--5-5-5-5-5-5-5----------------7--7-7-7-7-7-7-|x1

Chorus
e---------------------------------------------------------------|
b---------------------------------------------------------------|
g-6--6-6-6-6-6-6------------------8--8-8-8-8-8-8----------------|
d-6--6-6-6-6-6-6-7--7-7-7-7-7-7-7-8--8-8-8-8-8-8-9--9-9-9-9-9-9-|
a-4--4-4-4-4-4-4-7--7-7-7-7-7-7-7-6--6-6-6-6-6-6-9--9-9-9-9-9-9-|
e----------------5--5-5-5-5-5-5-5----------------7--7-7-7-7-7-7-|x4

e------------------------------------|
b------------------------------------|
g--------8-8-8---------8-8-8---------|
d-7-7-7--8-8-8--7-7-7--8-8-8---------|
a-7-7-7--6-6-6--7-7-7--6-6-6---------|
e-5-5-5---------5-5-5----------------|x1

Outro
e------------------------------------|
b------------------------------------|
g--------8-8-8---------8-8-8---------|
d-7-7-7--8-8-8--7-7-7--8-8-8---------|
a-7-7-7--6-6-6--7-7-7--6-6-6---------|x3

e------------------------------------|
b------------------------------------|
g--------8---------------------------|
d-7-7-7--8-9---7---------------------|
a-7-7-7--6-9---7---------------------|
e-5-5-5----7---5---------------------|
Добавлено: 12.05.2012
Другие материалы по этой песне:

Страница создана 28.04.2012
http://primanota.ru/nomeansno/dad-chords.htm
Привет, Гость.
Предлагаем пройти революционный курс по гитаре.
Подарок от PrimaNota.Ru, забирай!