PrimaNota.ru - самый крупный в мире бесплатный архив песенных текстов, аккордов, табулатур и нот


Nomeansno - Big Dick - текст песни, бас-таба, видео

Регистрация Запомнить меня
Войти через:  Facebook Google Twitter Vk Yandex Mail.ru

Nomeansno - Big Dick - текст песни, бас-таба, видео

Печатать
Просмотров: 233
Nomeansno - Big Dick

INTRO/MAIN RIFF

||----------------------------|---------------------------|
D||-----------0-7-L-0-4--------|-----------7--L-0-4--------|
A||----------------------5-3---|---------------------5-3---|
E||--5-----3-------------------|--5-----3------------------|

----------------------------|-----------------------|
-----------0-7-L-0-4--------|-----------------------|
----------------------5-3---|-----------------------|
--5-----3-------------------|--5---3-L--5-----------|

|-------------------------------|------------------------------|
|*------------0-7-L-0-4---------|------------0-7-L-0-4---------|
|*-----------------------5-5-3--|-----------------------5-5-3--|
|---5-5-3--5--------------------|--5-5-3--5--------------------|

------------------------------|------------------------------|
------------0-7-L-0-4---------|---------------7-7-7-7-7-7-7--|
-----------------------5-5-3--|------------------------------|
--5-5-3--5--------------------|--5-5-3--5--0-----------------|

VARIATION:
--------------------------|----------------------------|
--------------------------|----------------------------|
--5--5--5--5--5--5--5-3---|--1--1--1--1----------------|
--------------------------|--------------3-3-3-1-L--0--|


BRIDGE
|------------------------------|-----------------------------|
|*--------------------------7--|--------------------------7--|
|*--5-5-5-5-L-5-5--5-----------|--3-3-3-3-L-3-3--3-----------|
|------------------------------|-----------------------------|

-----------------------------|-----------------------------||
--------------------------7--|-----------------------7----*||
--5-5-5-5-L-5-5--5-----------|--3-3-3-3-L-3-3--3----------*||
-----------------------------|-----------------------------||


Bit that is played at the end of the bridge:
-------------------------------|------------------------|
----------------4--------------|------------------------|
--3------5--------6-5--3-0-----|------------------------|
----4-3----7-6-------------4-3-|--L--------Ls----15\----|


OUTRO (w/variations):

|-----------------------------|----------------------------|
|*----------------------------|--------------------3--3----|
|*--5-5--5-3--5--5-5--5-3--5--|--5-5-5-5-3--5--0-0---------|
|-----------------------------|----------------------------|

-----------------------------|---------------------------||
-----------------------------|-----------------3--------*||
--5-5--5-3--5--5-5-5-5-3--5--|-----------3--5-----5--3--*||
-----------------------------|--1--3--5------------------||

----------------------------|----------------------------|
-----------0-7-L-0-4--------|-----------------3--3-3-3-3-|
----------------------5-3---|--5--5--3--5--0-------------|
--5-----3-------------------|----------------------------|

----------------------------|--------------------------|
-----------0-7-L-0-4--------|--6--5--3-----3-----------|
----------------------5-3---|-----------5-----5--3-----|
--5-----3-------------------|-----------------------5--|

----------------------------|--7--5--------------------|
-----------0-7-L-0-4--------|--------7--6--5--3--------|
----------------------5-3---|--------------------5--3--|
--5-----3-------------------|--------------------------|

----------------------------|------------------------------|
-----------0-7-L-0-4--------|-------------------3--3-3-3-3-|
----------------------5-3---|--5-4-3--5-4-3--0-------------|
--5-----3-------------------|------------------------------|

----------------------------|---------------------------|
-----------0-7-L-0-4--------|-----------7--L-0-4--------|
----------------------5-3---|---------------------5-3---|
--5-----3-------------------|--5-----3------------------|

----------------------------|---------------------------|
-----------0-7-L-0-4--------|-----------7--L-0-4--------|
----------------------5-3---|---------------------5-3---|
--5-----3-------------------|--5-----3------------------|

----------------------------|---------------------------|
-----------0-7-L-0-4--------|-----------7--L-0-4--------|
----------------------5-3---|---------------------5-3---|
--5-----3-------------------|--5-----3------------------|

----------------------------|--------------------------||
-----------0-7-L-0-4--------|--------------------------||
----------------------5-3---|--------------------------||
--5-----3-------------------|--5---3-L---5--L\---------||
Добавлено: 21.07.2015
Другие материалы по этой песне:

Страница создана 18.06.2012
http://primanota.ru/nomeansno/big-dick-chords.htm
Привет, Гость.
Предлагаем пройти революционный курс по гитаре.
Подарок от PrimaNota.Ru, забирай!