PrimaNota.ru - самый крупный в мире бесплатный архив песенных текстов, аккордов, табулатур и нот


Nomeansno - A Little Too High - текст песни, бас-таба, видео

Регистрация Запомнить меня
Войти через:  Facebook Google Twitter Vk Yandex Mail.ru

Nomeansno - A Little Too High - текст песни, бас-таба, видео

Печатать
Просмотров: 111


 NoMeansNo

A Little Too High

Written by Rob Wright


Tabbed by Jason Suplina
	 foxtrotsky@hotmail.com

0:00

--------4-3-1-2-3-4-------------------------------3-1-2-3-4----
--4-3-0-------------0-1-2-3-----------------3-2-0-----------0-1
0---------------------------0-1-2-3---3-2-0--------------------
------------------------------------0--------------------------

0:04
--------------------------
---3---3-2----------------
-3---2-----1---2----------
-------------1------------

1:14

--------------------------
--------------------------
---4------2-------------2-
-2----------0-2-0-0-2-0---

1:21

-1-2-3-4------------------
---------0-1-2-3----------
--------------------------
--------------------------

3:01
---------3-----------------------3--
-----3-----3-------------2---2-0----
---5---2-----2--2-5--0-0---0--------
-----------------------------

3:03
--------------------------------3-
---3---3---3---3--------2-3-2-0---
-5---2---5---2----0-2-0-----------
----------------------------------

3:09
---------5-----5------------
-5-6-5-3---5-3------------------
--------------------------
--------------------------

3:10
-------0--1-2-3-4--------------
-----3------------0-1-2-3------
-2-0------------------------
--------------------------

5:05
---------5-4-3-1--------------
-6-5-4-2----------------------
--------------------------
--------------------------

7:33
---------------------------------------------------------3
--------------------------------------------5-2--5-2-1-0-----
-2-0-0-2-0-2------2-222-5-5---------------------2---------
-----------------------------0000-5-0-5-7-8----------------

7:47
--------------------------
--------------------------
--9-9-9-9-9-8-7-6-5-4-----
-9-9-9-9-9--8-7-6-5-4-----


8:40
--------4-3-1-2-3-4-------------------------------3-1-2-3-4----
--4-3-0-------------0-1-2-3-----------------3-2-0-----------0-1
0---------------------------0-1-2-3---3-2-0--------------------
------------------------------------0--------------------------


Добавлено: 04.09.2013
Другие материалы по этой песне:
  • Аккорды и текст

Страница создана 30.03.2012
http://primanota.ru/nomeansno/a-little-too-high-chords.htm
Привет, Гость.
Предлагаем пройти революционный курс по гитаре.
Подарок от PrimaNota.Ru, забирай!