PrimaNota.ru - самый крупный в мире бесплатный архив песенных текстов, аккордов, табулатур и нот


Nomadi - Marinaio Di Ventanni - текст песни, таба, видео

Регистрация Запомнить меня
Войти через:  Facebook Google Twitter Vk Yandex Mail.ru

Nomadi - Marinaio Di Ventanni - текст песни, таба, видео

Печатать
Просмотров: 124
_________________________________________________________________

MARINAIO DI VENT'ANNI
(NOMADI)
_________________________________________________________________
autore: Masho
masho90@libero.it



RIFF:
                            RE
e|------------------------|-----------------------|
B|----------8-------------|-----------------------|
G|------7/9---9p7-7-9/11\-|-7---------------------|
D|------------------------|-----------------------|
A|------------------------|-----------------------|
E|------------------------|-----------------------|

   RE                       SOL
e|------------------------|-----------------------|
B|----------8-------------|-----------------------|
G|------7/9---9p7-7-9/11\-|-7h9p7-----------------|
D|------------------------|--------9--------------|
A|------------------------|-----------------------|
E|------------------------|-----------------------|

   SOL                      LA                      LA
e|------------------------|-----------------------|------|
B|----------8-------------|-----------------------|------|
G|------7/9---9p7-7-9/11\-|-7h9-------------7---7-|-9----|
D|------------------------|-------------------9---|------|
A|------------------------|-----------------------|------|
E|------------------------|-----------------------|------|



RE                  RE                   SOL
  Quando il mare fa paura, e le onde son leoni
                LA
E compaiono dal niente
                RE
Marinaio di vent'anni
                     SOL
Non guardare su nel cielo
                 LA
Il tuo cuore cederà
                RE               SOL     RE
È l'Olandese volante che va, che va, che va.


[RIFF] (RE - SOL - LA)


RE                     RE                           SOL
 Con la prua contro il niente, quella nave solca il mare
                    LA
Comandata da un fantasma
                  RE
Lo conoscono nei porti
                   SOL
Lo conoscon dappertutto
                RE               SOL     RE
È l'Olandese volante che va, che va, che va.


[RIFF] (RE - SOL - LA)


RE                     RE                      SOL
 Con le onde contro il viso, con la prua della nave
                       LA
Che combatte contro il mare
                 RE
Marinaio di vent'anni
                     SOL
Non guardare su nel cielo
                     LA
Tra le scariche dei lampi
                RE               SOL     RE
È l'Olandese volante che va, che va, che va.


[RIFF] (RE - SOL - LA)


RE                RE                    SOL
 Fu punito anticamente per avere bestemmiato
                     LA
Il suo dio troppo ostile
                     RE
Superando in gran tempesta
                  SOL
Capo di Buona Speranza
                RE               SOL     RE
È l'Olandese volante che va, che va, che va.


[RIFF] (RE - SOL - LA - RE - SOL - LA - RE)


_________________________________________________________________

Добавлено: 20.03.2012
Другие материалы по этой песне:
  • Аккорды и текст

Страница создана 20.03.2012
http://primanota.ru/nomadi/marinaio-di-ventanni-chords.htm
Привет, Гость.
Предлагаем пройти революционный курс по гитаре.
Подарок от PrimaNota.Ru, забирай!