PrimaNota.ru - самый крупный в мире бесплатный архив песенных текстов, аккордов, табулатур и нот


Noize MC - My Sea - таба, видео

Регистрация Запомнить меня
Войти через:  Facebook Google Twitter Vk Yandex Mail.ru

Noize MC - My Sea - таба, видео

Печатать
Просмотров: 163
-------------------------------------------------------------------------------
                             Моё море - Noize MC
-------------------------------------------------------------------------------
Tabbed by:Maklas
E-mail:maklasaa@gmail.com

                    F
e|-0----------------1------0--------------0----------|
B|----1-------------1---------3-----------3----------|
G|-------0--2-------2------------2--1-----1----------|
D|------------------3---------------------0----------|
A|-0----------------3------2--------------2----------|
E|------------------1--------------------------------|

e|-0----------------1---------0-------0--------------|
B|----1-------------1---------3-------3--------------|
G|-------0--2-------2---------2-------1--------------|
D|------------------3--------------------------------|
A|-0----------------3------2-------2-----------------|
E|------------------1--------------------------------|


************************************
Добавлено: 21.05.2015
Другие материалы по этой песне:
  • Аккорды и текст

Страница создана 21.05.2015
http://primanota.ru/noize-mc-2/my-sea-chords.htm
Привет, Гость.
Предлагаем пройти революционный курс по гитаре.
Подарок от PrimaNota.Ru, забирай!