PrimaNota.ru - самый крупный в мире бесплатный архив песенных текстов, аккордов, табулатур и нот


Noise - Dirty Evil - таба, видео

Регистрация Запомнить меня
Войти через:  Facebook Google Twitter Vk Yandex Mail.ru

Noise - Dirty Evil - таба, видео

Печатать
Просмотров: 124
----------------------------------------------------------------------------
Dirty evil
----------------------------------------------------------------------------

There are two version of this song, one with a drop D tuning (DADGBe)and one with 
the standard tuning (EADGBe). Choose which one you want to play and rock on!


Duration Legend
---------------
W - whole; H - half; Q - quarter; E - 8th; S - 16th; T - 32nd; X - 64th; a - acciaccatura
+ - note tied to previous; . - note dotted; .. - note double dotted
Uncapitalized letters represent notes that are staccato (1/2 duration)
Irregular groupings are notated above the duration line
Duration letters will always appear directly above the note/fret number it represents the
duration for.  Duration letters with no fret number below them represent rests.  Multi-
bar rests are notated in the form Wxn, where n is the number of bars to rest for.  Low
melody durations appear below the staff

Tablature Legend
----------------
 h   - hammer-on
 p   - pull-off
 b   - bend
 pb  - pre-bend
 r   - bend release (if no number after the r, then release immediately)
 /\  - slide into or out of (from/to "nowhere")
 s   - legato slide
 S   - shift slide
  - natural harmonic
[n]  - artificial harmonic
n(n) - tapped harmonic
 ~   - vibrato
 tr  - trill
 T   - tap
 TP  - trem. picking
 PM  - palm muting
\n/  - tremolo bar dip; n = amount to dip
 \n  - tremolo bar down
 n/  - tremolo bar up
/n\  - tremolo bar inverted dip
 =   - hold bend; also acts as connecting device for hammers/pulls
 <>  - volume swell (louder/softer)
 x   - on rhythm slash represents muted slash
 o   - on rhythm slash represents single note slash

Misc Legend
-----------
 |  - bar
||  - double bar
||o - repeat start
o|| - repeat end
*|  - double bar (ending)
 :  - bar (freetime)
 $  - Segno


DROP D VERSION

Intro
               
               PM-----------------------|
    E E S S E   E E E E E E E E   E E E E E E S S E
e|------------|-----------------|-------------------||
B|------------|-----------------|-------------------||
G|--2p0-------|-----------------|---------2p0-------||
D|--0---2p0-2-|-2-2-2-1-1-1-1-0-|-0-0-0-0-0---2p0-2-||
A|----------2-|-2-2-2-1-1-1-1-0-|-0-0-0-0---------2-||
D|------------|-2-2-2-1-1-1-1-0-|-0-0-0-0-----------||
              \_____________________________________/
                         play this 4 times

Verse

  PM-----------------------|
   E E E E E E E E   E E E E E E S S E
e|-----------------|-------------------||
B|-----------------|-------------------||
G|-----------------|---------2p0-------||
D|-2-2-2-1-1-1-1-0-|-0-0-0-0-0---2p0-2-|| play 8 times
A|-2-2-2-1-1-1-1-0-|-0-0-0-0---------2-||
D|-2-2-2-1-1-1-1-0-|-0-0-0-0-----------||


Bridge

  PM-----------------------|
   E E E E E E E E   E E E E E E S S E
e|-----------------|-------------------||
B|-----------------|-------------------||
G|-----------------|---------2p0-------||
D|-2-2-2-1-1-1-1-0-|-0-0-0-0-0---2p0-2-|| play 4 times
A|-2-2-2-1-1-1-1-0-|-0-0-0-0---------2-||
D|-2-2-2-1-1-1-1-0-|-0-0-0-0-----------||


Chorus

  
   E E E E E E E E   E E E E E E E E   E E E E E E E E   E E E E E E S S E
e|-----------------|-----------------|-----------------|-------------------|
B|-----------------|-----------------|-----------------|-------------------|
G|-----------------|-----------------|-----------------|---------2p0-------|
D|-2-2-2-5-5-5-5-7-|-7-7-7-7-9-7-5-2-|-2-2-2-5-5-5-5-7-|-7-7-7-7-0---2p0-2-|
A|-2-2-2-5-5-5-5-7-|-7-7-7-7-9-7-5-2-|-2-2-2-5-5-5-5-7-|-7-7-7-7---------2-|
D|-2-2-2-5-5-5-5-7-|-7-7-7-7-9-7-5-2-|-2-2-2-5-5-5-5-7-|-7-7-7-7-----------|
  \_________________________________/
          play this 3 times 

Second chorus

   E E E E E E E E   E E E E E E E E   E E E E E E E E   E E E E E E S S E
e|-----------------|-----------------|-----------------|-------------------|
B|-----------------|-----------------|-----------------|-------------------|
G|-----------------|-----------------|-----------------|---------2p0-------|
D|-2-2-2-5-5-5-5-7-|-7-7-7-7-9-7-5-2-|-2-2-2-5-5-5-5-7-|-7-7-7-7-0---2p0-2-|
A|-2-2-2-5-5-5-5-7-|-7-7-7-7-9-7-5-2-|-2-2-2-5-5-5-5-7-|-7-7-7-7---------2-|
D|-2-2-2-5-5-5-5-7-|-7-7-7-7-9-7-5-2-|-2-2-2-5-5-5-5-7-|-7-7-7-7-----------|
  \_________________________________/
          play this 7 times

Outro

  PM-----------------------|
   E E E E E E E E   E E E E E E S S E
e|-----------------|-------------------||
B|-----------------|-------------------||
G|-----------------|---------2p0-------||
D|-2-2-2-1-1-1-1-0-|-0-0-0-0-0---2p0-2-|| play 4 times
A|-2-2-2-1-1-1-1-0-|-0-0-0-0---------2-||
D|-2-2-2-1-1-1-1-0-|-0-0-0-0-----------||


STANDARD TUNING VERSION

Intro
               
               PM-----------------------|
    E E S S E   E E E E E E E E   E E E E E E S S E
e|------------|-----------------|-------------------||
B|------------|-----------------|-------------------||
G|--2p0-------|-----------------|---------2p0-------||
D|--0---2p0-2-|-2-2-2-1-1-1-1-0-|-0-0-0-0-0---2p0-2-||
A|----------2-|-2-2-2-1-1-1-1-0-|-0-0-0-0---------2-||
E|------------|-0-0-0-----------|-------------------||
              \_____________________________________/
                         play this 4 times

Verse

  PM-----------------------|
   E E E E E E E E   E E E E E E S S E
e|-----------------|-------------------||
B|-----------------|-------------------||
G|-----------------|---------2p0-------||
D|-2-2-2-1-1-1-1-0-|-0-0-0-0-0---2p0-2-|| play 8 times
A|-2-2-2-1-1-1-1-0-|-0-0-0-0---------2-||
E|-0-0-0-----------|-------------------||


Bridge

  PM-----------------------|
   E E E E E E E E   E E E E E E S S E
e|-----------------|-------------------||
B|-----------------|-------------------||
G|-----------------|---------2p0-------||
D|-2-2-2-1-1-1-1-0-|-0-0-0-0-0---2p0-2-|| play 4 times
A|-2-2-2-1-1-1-1-0-|-0-0-0-0---------2-||
E|-0-0-0-----------|-------------------||


Chorus

  
   E E E E E E E E   E E E E E E E E   E E E E E E E E   E E E E E E S S E
e|-----------------|-----------------|-----------------|-------------------|
B|-----------------|-----------------|-----------------|-------------------|
G|-----------------|-----------------|-----------------|---------2p0-------|
D|-2-2-2-5-5-5-5-7-|-7-7-7-7-9-7-5-2-|-2-2-2-5-5-5-5-7-|-7-7-7-7-0---2p0-2-|
A|-2-2-2-5-5-5-5-7-|-7-7-7-7-9-7-5-2-|-2-2-2-5-5-5-5-7-|-7-7-7-7---------2-|
E|-0-0-0-0-3-3-3-5-|-5-5-5-5-7-5-3-0-|-0-0-0-3-3-3-3-5-|-5-5-5-5-----------|
  \_________________________________/
          play this 3 times 

Second chorus

   E E E E E E E E   E E E E E E E E   E E E E E E E E   E E E E E E S S E
e|-----------------|-----------------|-----------------|-------------------|
B|-----------------|-----------------|-----------------|-------------------|
G|-----------------|-----------------|-----------------|---------2p0-------|
D|-2-2-2-5-5-5-5-7-|-7-7-7-7-9-7-5-2-|-2-2-2-5-5-5-5-7-|-7-7-7-7-0---2p0-2-|
A|-2-2-2-5-5-5-5-7-|-7-7-7-7-9-7-5-2-|-2-2-2-5-5-5-5-7-|-7-7-7-7---------2-|
E|-0-0-0-0-3-3-3-5-|-5-5-5-5-7-5-3-0-|-0-0-0-3-3-3-3-5-|-5-5-5-5-----------|
  \_________________________________/
          play this 7 times 

Outro

  PM-----------------------|
   E E E E E E E E   E E E E E E S S E
e|-----------------|-------------------||
B|-----------------|-------------------||
G|-----------------|---------2p0-------||
D|-2-2-2-1-1-1-1-0-|-0-0-0-0-0---2p0-2-|| play 4 times
A|-2-2-2-1-1-1-1-0-|-0-0-0-0---------2-||
D|-0-0-0-----------|-------------------||


Song structure

Intro
Verse
Bridge
Verse
Chorus
Bridge
Verse
Second chorus
Outro

Lyrics

I feel like I am wrong
It's been so goddamn long 
I take my chances with my safety goggles on 
Well I feel so goddamn wrong

And I feel like I could drown 
So I put my good foot down 
I make advances yet I never come around 
And I feel my good foot's bound

And I wonder why I bother 
I wonder why I even try 
I feel so dirty evil 
When you can't look me in the eye

I roll the dice today 
It's a pointless game I play 
Deep thoughts from a shallow mind I've got nothin' 
more to say 
It's pointless anyway

And I wonder why I bother 
I wonder why I even try 
I feel so dirty evil 
When you can't look me in the eye

And I wonder why I bother 
I wonder why I even try 
I feel so dirty evil 
When you can't look me in the eye 

Добавлено: 29.03.2012
Вам также может быть интересно:
Другие материалы по этой песне:

Страница создана 29.03.2012
http://primanota.ru/noise/dirty-evil-chords.htm
Привет, Гость.
Предлагаем пройти революционный курс по гитаре.
Подарок от PrimaNota.Ru, забирай!