PrimaNota.ru - самый крупный в мире бесплатный архив песенных текстов, аккордов, табулатур и нот


Noise Pollution - Turn Theles - таба, видео

Регистрация Запомнить меня
Войти через:  Facebook Google Twitter Vk Yandex Mail.ru

Noise Pollution - Turn Theles - таба, видео

Печатать
Просмотров: 55
E Standard Tuning (EADGBE)

Intro
E-----------------------------------|
B-----------------------------------|
G------------------12-0-10-0--------|
D-0-0-12-0-0-10-0-0---------14-0-10-|  x3
A-----------------------------------|
E-----------------------------------|

E------------------------------------------|
B------------------------------------------|
G------------------12-12-12-12-12-12-12-12-|
D-0-0-12-0-0-10-0-0------------------------|
A------------------------------------------|
E------------------------------------------|

E-----------------------------------|
B-----------------------------------|
G------------------12-0-10-0--------|
D-0-12-10-11-12-10----------14-0-10-|  x3
A-----------------------------------|
E-----------------------------------|

E------------------------------------------|
B------------------------------------------|
G------------------12-12-12-12-12-12-12-12-|
D-0-12-10-11-12-10-------------------------|
A------------------------------------------|
E------------------------------------------|
Добавлено: 22.10.2015
Другие материалы по этой песне:
  • Аккорды и текст

Страница создана 22.10.2015
http://primanota.ru/noise-pollution/turn-theles-chords.htm
Привет, Гость.
Предлагаем пройти революционный курс по гитаре.
Подарок от PrimaNota.Ru, забирай!