PrimaNota.ru - самый крупный в мире бесплатный архив песенных текстов, аккордов, табулатур и нот


Noise Pollution - The Forgotten - таба, видео

Регистрация Запомнить меня
Войти через:  Facebook Google Twitter Vk Yandex Mail.ru

Noise Pollution - The Forgotten - таба, видео

Печатать
Просмотров: 83
Уроки эстрадного вокала в Санкт-Петербурге
E Standard tuning (EADGBE)

Intro
e------------------------2-------------|
B---7----7-10-7--------3---------------|
G-9----9-------9-----4-----4-----5/6-6-|
D----------------5-4---------4---------|
A--------------------------------------|
E--------------------------------------|

e------------------------------------------------------|
B-7-----10-----7---7-----10----7-----------------------|
G---9-9----9-9---9---9-9---9-9---9---6-6-6-6---6-6-6-6-|
D----------------------------------7-6-6-6-6-7-6-6-6-6-| X3  7= P.M
A----------------------------------7-4-4-4-4-7-4-4-4-4-|     5= P.M 
E----------------------------------5---------5---------|     5= P.M

                                   ......P.M......
e------------------------------------------------------------------|
B-7-----10-----7---7-----10----7-----------------------------------|
G---9-9----9-9---9---9-9---9-9---9---------------------------------|
D----------------------------------4-4-4-4-4-4-4-4-4-4-4-4-4-4-4-4-|
A----------------------------------4-4-4-4-4-4-4-4-4-4-4-4-4-4-4-4-|
E----------------------------------2-2-2-2-2-2-2-2-2-2-2-2-2-2-2-2-|
Добавлено: 22.10.2015
Вам также может быть интересно:
Другие материалы по этой песне:
  • Аккорды и текст

Страница создана 22.10.2015
http://primanota.ru/noise-pollution/forgotten-chords.htm
Привет, Гость.
Предлагаем пройти революционный курс по гитаре.
Подарок от PrimaNota.Ru, забирай!