PrimaNota.ru - самый крупный в мире бесплатный архив песенных текстов, аккордов, табулатур и нот


Noise Pollution - Darkside - таба, видео

Регистрация Запомнить меня
Войти через:  Facebook Google Twitter Vk Yandex Mail.ru

Noise Pollution - Darkside - таба, видео

Печатать
Просмотров: 98
E Standard Tuning (EADGBE)

Intro
e-----------------|
B-----------------|
G-----------------|
D-6-6---2-2---9-9-|
A-6-6---2-2---9-9-|
E-4-4---0-0---7-7-|

                                                                                                      x2
e-------------------------------------------------------------------------------------------------------------|
B-------------------------------------------------------------------------------------------------------------|
G---------------------------------------------------------------------------------9-9-9-8-8-8-----------------| 
D-6-6-8-8-8-9-9-9-11-11-11-8--2-2-8-8-8-9-9-9-11-11-11-9--9-9-8-8-8-9-9-9-11-11-11------------11-11-11-11-9-8-|
A-6-6-------------------------2-2-------------------------9-9-------------------------------------------------|
E-4-4-------------------------0-0-------------------------7-7-------------------------------------------------|


Verse
 ................P.M.................
e------------------------------------|
B------------------------------------|
G------------------------------------|
D-6-6-6--6-6-6-6-6--2-2-2--2-2-2-2-2-|
A-6-6-6--6-6-6-6-6--2-2-2--2-2-2-2-2-|
E-4-4-4--4-4-4-4-4--0-0-0--0-0-0-0-0-|

 .............................P.M.................................
e-----------------------------------------------------------------|
B-----------------------------------------------------------------|
G-----------------------------------------------------------------|
D-9-9-9-9-9-9-9-9-9-9-9-9-9-9-9-9-4-4-4-4-4-4-4-4-4-4-4-4-4-4-4-4-|
A-9-9-9-9-9-9-9-9-9-9-9-9-9-9-9-9-4-4-4-4-4-4-4-4-4-4-4-4-4-4-4-4-|
E-7-7-7-7-7-7-7-7-7-7-7-7-7-7-7-7-2-2-2-2-2-2-2-2-2-2-2-2-2-2-2-2-|

Chorus
e----------------------------------|
B----------------------------------|
G----------------------------------|
D-6-6-6-6-6-6-6-6--2-2-2-2-2-2-2-2-|
A-6-6-6-6-6-6-6-6--2-2-2-2-2-2-2-2-|
E-4-4-4-4-4-4-4-4--0-0-0-0-0-0-0-0-|
                                      X2
e----------------------------------|
B----------------------------------|
G----------------------------------|
D-9-9-9-9-9-9-9-9--4-4-4-4-4-4-4-4-|
A-9-9-9-9-9-9-9-9--4-4-4-4-4-4-4-4-|
E-7-7-7-7-7-7-7-7--2-2-2-2-2-2-2-2-|
                                                                                                x2
e-------------------------------------------------------------------------------------------------------------|
B-------------------------------------------------------------------------------------------------------------|
G---------------------------------------------------------------------------------9-9-9-8-8-8-----------------| 
D-6-6-8-8-8-9-9-9-11-11-11-8--2-2-8-8-8-9-9-9-11-11-11-9--9-9-8-8-8-9-9-9-11-11-11------------11-11-11-11-9-8-|
A-6-6-------------------------2-2-------------------------9-9-------------------------------------------------|
E-4-4-------------------------0-0-------------------------7-7-------------------------------------------------|


Verse 2
 ..............................P.M................................
e-----------------------------------------------------------------|
B-----------------------------------------------------------------|
G-----------------------------------------------------------------|
D-6-6-6-6-6-6-6-6-6-6-6-6-6-6-6-6-2-2-2-2-2-2-2-2-2-2-2-2-2-2-2-2-|
A-6-6-6-6-6-6-6-6-6-6-6-6-6-6-6-6-2-2-2-2-2-2-2-2-2-2-2-2-2-2-2-2-|
E-4-4-4-4-4-4-4-4-4-4-4-4-4-4-4-4-0-0-0-0-0-0-0-0-0-0-0-0-0-0-0-0-|
                                                                    X2
 ..............................P.M................................ 
e-----------------------------------------------------------------|
B-----------------------------------------------------------------|
G-----------------------------------------------------------------|
D-9-9-9-9-9-9-9-9-9-9-9-9-9-9-9-9-4-4-4-4-4-4-4-4-4-4-4-4-4-4-4-4-|
A-9-9-9-9-9-9-9-9-9-9-9-9-9-9-9-9-4-4-4-4-4-4-4-4-4-4-4-4-4-4-4-4-|
E-7-7-7-7-7-7-7-7-7-7-7-7-7-7-7-7-2-2-2-2-2-2-2-2-2-2-2-2-2-2-2-2-|


Chorus
e----------------------------------|
B----------------------------------|
G----------------------------------|
D-6-6-6-6-6-6-6-6--2-2-2-2-2-2-2-2-|
A-6-6-6-6-6-6-6-6--2-2-2-2-2-2-2-2-|
E-4-4-4-4-4-4-4-4--0-0-0-0-0-0-0-0-|
                                      X2
e----------------------------------|
B----------------------------------|
G----------------------------------|
D-9-9-9-9-9-9-9-9--4-4-4-4-4-4-4-4-|
A-9-9-9-9-9-9-9-9--4-4-4-4-4-4-4-4-|
E-7-7-7-7-7-7-7-7--2-2-2-2-2-2-2-2-|
                                                                    

Bridge
e-----------------------------------------------------------------|
B-----------------------------------------------------------------|
G-----------------------------------------------------------------|
D-6---2---9---4---9-4---------------------------------------------|
A-6---2---9---4---9-4---------------------------------------------|
E-4---0---7---2---7-2---------------------------------------------|

      ....P.M....      ....P.M....     ....P.M....   .P.M..
e----------------------------------------------------------------|
B----------------------------------------------------------------|
G----------------------------------------------------------------|
D-6-6-6-6-6-6-6-6--2-2-2-2-2-2-2-2---9-9-9-9-9-9-9--4-4-4-4--9-4-|
A-4-4-6-6-6-4-4-4--2-2-2-2-2-2-2-2---9-9-9-9-9-9-9--4-4-4-4--7-4-|
E-4-4-4-4-4-4-4-4--0-0-0-0-0-0-0-0---7-7-7-7-7-7-7--2-2-2-2--7-2-|

    .....P.M.....      ....P.M....       ....P.M....     .P.M.
e------------------------------------------------------------------|
B------------------------------------------------------------------|
G------------------------------------------------------------------|
D-6-6-6-6-6-6-6-6--2-2-2-2-2-2-2-2---9-9-9-9-9-9-9-9--4-4-4-4--9-4-|
A-4-6-6-6-4-4-4-4--2-2-2-2-2-2-2-2---9-9-9-9-9-9-9-7--4-4-4-4--7-4-|
E-4-4-4-4-4-4-4-4--0-0-0-0-0-0-0-0---7-7-7-7-7-7-7-7--2-2-2-2--7-2-|

e-----------------------------------------------------------------|
B-----------------------------------------------------------------|
G-----------------------------------------------------------------|
D-6-6-6-6-6-6-6-6-6-6-6-6-6-6-6-6-2-2-2-2-2-2-2-2-2-2-2-2-2-2-2-2-|
A-6-6-6-6-6-6-6-6-6-6-6-6-6-6-6-6-2-2-2-2-2-2-2-2-2-2-2-2-2-2-2-2-|
E-4-4-4-4-4-4-4-4-4-4-4-4-4-4-4-4-0-0-0-0-0-0-0-0-0-0-0-0-0-0-0-0-|
                                                                   
e-----------------------------------------------------------------|
B-----------------------------------------------------------------|
G-----------------------------------------------------------------|
D-9-9-9-9-9-9-9-9-9-9-9-9-9-9-9-9-4-4-4-4-4-4-4-4-4-4-4-4-4-4-4-4-|
A-9-9-9-9-9-9-9-9-9-9-9-9-9-9-9-9-4-4-4-4-4-4-4-4-4-4-4-4-4-4-4-4-|
E-7-7-7-7-7-7-7-7-7-7-7-7-7-7-7-7-2-2-2-2-2-2-2-2-2-2-2-2-2-2-2-2-|


Chorus
e----------------------------------|
B----------------------------------|
G----------------------------------|
D-6-6-6-6-6-6-6-6--2-2-2-2-2-2-2-2-|
A-6-6-6-6-6-6-6-6--2-2-2-2-2-2-2-2-|
E-4-4-4-4-4-4-4-4--0-0-0-0-0-0-0-0-|
                                      X2
e----------------------------------|
B----------------------------------|
G----------------------------------|
D-9-9-9-9-9-9-9-9--4-4-4-4-4-4-4-4-|
A-9-9-9-9-9-9-9-9--4-4-4-4-4-4-4-4-|
E-7-7-7-7-7-7-7-7--2-2-2-2-2-2-2-2-|
Добавлено: 22.10.2015
Другие материалы по этой песне:
  • Аккорды и текст

Страница создана 22.10.2015
http://primanota.ru/noise-pollution/darkside-chords.htm
Привет, Гость.
Предлагаем пройти революционный курс по гитаре.
Подарок от PrimaNota.Ru, забирай!