PrimaNota.ru - самый крупный в мире бесплатный архив песенных текстов, аккордов, табулатур и нот


Noise Addict - Meet The Real You Album - таба, видео

Регистрация Запомнить меня
Войти через:  Facebook Google Twitter Vk Yandex Mail.ru

Noise Addict - Meet The Real You Album - таба, видео

Печатать
Просмотров: 82
From: Onryetoast@aol.com
Date: Thu, 8 Aug 1996 20:07:28 -0400
Subject: TAB: Meet the Real You album by Noise Addict


Tracks from the Meet the Real You album by Noise Addict
Transcribed by OnRyeToast@aol.com
(use only power and bar chords)


Blemish
intro:
C7
D5  G5

verse:
G5  E5   D
G5  E5   D
Am  D
C5  A5 (2nd verse)

chorus:
G  D  C
G  D  Em
C  D  G

"16"
intro and chorus:
bend up to 16 and release to 15
E -------------------------------------------------------
B -------------------------------------------------------
G --------------------------------------------------13---
D -15--------------------------------13-13-15-13-15------
A -------------------------------------------------------
E -------------------------------------------------------
1 2  1 2 3 4                      play 3 times


E -------------------------------------------------------
B -------------------------------------------------------
G -----------------------13-15-15-15-15b16r15-13----13---
D -15b16r15--------------------------------------15------
A -------------------------------------------------------
E -------------------------------------------------------
1 2 3 4 1 2 3 4 (x2)

verse:
G#5  C5    F#5
C#   D#    F#

chorus(chords only):
G#5  C#5
G#5  C#5
G#5  E5

C#5  B#5
G#5  C#5

F#5  E5   G#5

refrain:
C#5  A#5
G#5  F#5

Boyfriendship
Verse:
B5  A5  G5

A5  B5  G5

Chorus:
D   B   G

A5  G5

Lead part throughout:
E -5------5----------
B ----7-------7------

Bezerk at Cirumbin
verse:
C5   G        F

G5   A5       F5

chorus:
C    Em        F

The Frail Girl
intro:
D5   G5    E5

verse:
D5   G5    E5

E5   G5
D5   A5

chorus:
D5   G5
B5   G5

E5

My Pathetic Friend
intro and chorus:
E -----------------------------------------10----10----10----10----10
B --------------------------------------------12----12----12----12---
G -------12----12---------14----14-----------------------------------
D -14-14----14------14-14----14------14-14---------------------------
A -------------------------------------------------------------------
E -------------------------------------------------------------------
C5               D5               G5             E5

verse(bass only):
G   C
A   D

(add guitar)
F5  A5   G5
F5  A5   G5  D

bridge:
C5   Em
C5   Em

Exorcism Babe
verse(bass only):
Bb   G    F
(add guitar):
Bb  Gm   F

chorus:
Cm    Eb
Bb    Gm
Добавлено: 09.05.2012
Другие материалы по этой песне:
  • Аккорды и текст

Страница создана 09.05.2012
http://primanota.ru/noise-addict/meet-the-real-you-album-chords.htm
Привет, Гость.
Предлагаем пройти революционный курс по гитаре.
Подарок от PrimaNota.Ru, забирай!