PrimaNota.ru - самый крупный в мире бесплатный архив песенных текстов, аккордов, табулатур и нот


Noir Desir - Song For Jlp - аккорды и текст, видео

Регистрация Запомнить меня
Войти через:  Facebook Google Twitter Vk Yandex Mail.ru

Noir Desir - Song For Jlp - аккорды и текст, видео

Печатать
Просмотров: 170
Уроки эстрадного вокала в Санкт-Петербурге
Авторы музыки: Frédéric Vidalenc
Авторы текста: Bertrand Cantat
Song For Jlp
Noir Desir
----------------------------------------------------------------------------
                             SONG FOR JLP - Noir Desir
----------------------------------------------------------------------------
Tabbed by: Jimmy
Email: jimi00jimi@hotmail.com

Tuning: Standard

INTRO: Here's just an idea of how I do it, but you can play around with something like: 

e|----------------------------0p3h5p3p0---------------------|
b|----------------------------------------------------------|
g|-0h2p0h2p0----------------------------0h2p0---------------|
D|-----------0h2p0---------2~-----------------2~-------2-2~-|
A|-----------------0h2p0-2-2~--------------------0h2p0-2-2~-|
E|-----------------------0-0~--------------------------0-0~-|

e|-------------------------------------------|
b|-------------------------------------------|
g|-------------------------------------------|
D|-------2-2~-------2~-0h2p0-2-2~---------2~-|
A|-0h2p0-2-2~-------2~-------2-2~-0h2p0---2~-|
E|-------0-0~-0h2p0----------0-0~-------0-0--|

VERSE:

           Em
What I feel
G       D     Em
Tear is in my heart
Em                    G        D       Em
You're looking in the eye of a devil's well

Em
What I hear
G       D     Em
Tear is in my mind
Em             G        D       Em
Looking in the eye of a devil's well

BRIDGE:
C                          Em
Where did you go, son of a been
     C
Why follow on this like a river's stream
       G              D       Em
You're beating in the heat of hell

VERSE:
Em
What I feel
G         D     Em
A tear is in my mind
Em                    G        D       Em
You're looking in the eye of a devil's well

Em
What I hear
G             D    Em
This tear is in my mind
Em             G        D       Em
Looking in the eye of a devil's well

BRIDGE:
C                          Em
Where did you go, son of a been
     C
Why follow on this like a river's stream
       G              D       Em
You're beating in the heat of hell
      C
Why follow on this like a river's stream
       G              D       Em
You're beating in the heat of hell
       G              D       Em
You're beating in the heat of hell
       G              D       Em
You're beating in the heat of hell

Jim
Добавлено: 10.03.2012
Другие материалы по этой песне:

Страница создана 28.02.2012
http://primanota.ru/noir-desir/song-for-jlp-chords.htm
Привет, Гость.
Предлагаем пройти революционный курс по гитаре.
Подарок от PrimaNota.Ru, забирай!