PrimaNota.ru - самый крупный в мире бесплатный архив песенных текстов, аккордов, табулатур и нот


Nofx - Your Hubcaps Cost More Than My Car - текст песни, таба, бас-таба, видео

Регистрация Запомнить меня
Войти через:  Facebook Google Twitter Vk Yandex Mail.ru

Nofx - Your Hubcaps Cost More Than My Car - текст песни, таба, бас-таба, видео

Печатать
Просмотров: 141
"your hubcaps cost more than my car" - NOFX
tabbed by: 3chordkyle (of i forget)


intro riff
e|---------------------------------------------------------------------------|
B|---------------------------------------------------------------------------|
G|-------------------------------8-------repeat------------------------------|
D|------9--------9-------9-----9---9-----------------------------------------|
A|---9----9-8-8----8-7-7---7-6-----------------------------------------------|
E|---------------------------------------------------------------------------|
guitar 1 on verse
e|---------------------------------------------------------------------------|
B|---------------------------------------------------------------------------|
G|-------------9-------------------------------------------------------------|
D|---9---9-9---9-----9----------repeat---------------------------------------|
A|---9---9-9---7-----9-------------------------------------------------------|
E|---7---7-7---------7-------------------------------------------------------|
guitar 2 on verse
e|---------------------------------------------------------------------------|
B|---------------------------------------------------------------------------|
G|--11-10-9--8-----------------repeat----------------------------------------|
D|--11-10-9--8---------------------------------------------------------------|
A|--9--8--7--6---------------------------------------------------------------|
E|---------------------------------------------------------------------------|
chorus
e|---------------------------------------------------------------------------|
B|---------------------------------------------------------------------------|
G|---------------------------------------------------------------------------|
D|--9--8--7--2--------repeat-------------------------------------------------|
A|--9--8--7--2---------------------------------------------------------------|
E|--7--6--5--0---------------------------------------------------------------|

and that's basically it.  good song.  not real sure if it's all 100% right. the riff is 
 i know that.  there are different chords used sometimes than the ones i wrote, but 
so slight that it's not really worth writing out.  so i guess that's all.  nofx rule.
i love you, kyle of i forget www.iforget.tk
Добавлено: 12.03.2012
Другие материалы по этой песне:

Страница создана 11.03.2012
http://primanota.ru/nofx/your-hubcaps-cost-more-than-my-car-chords.htm
Привет, Гость.
Предлагаем пройти революционный курс по гитаре.
Подарок от PrimaNota.Ru, забирай!