PrimaNota.ru - самый крупный в мире бесплатный архив песенных текстов, аккордов, табулатур и нот


Nofx - We March To The Beat Of Indifferent Drum - таба, бас-таба, видео

Регистрация Запомнить меня
Войти через:  Facebook Google Twitter Vk Yandex Mail.ru

Nofx - We March To The Beat Of Indifferent Drum - таба, бас-таба, видео

Печатать
Просмотров: 147
NoFX : We March To The Beat Of Indifferent Drum 
Wolves in Wolves Clothing 
2006



intro G1                         G2 - something like this
e- ------|                                                                  
H 8----4-|                       H      888    8   8  888
G 9----5-|                       G 9~      9 99  99      9
D 9----5-|                         
A 7----3-|
E -------|   -


verse (With our ass in the air...)
              2x
e--------2~----|
H-5~-(3)-3~-7~-|
G-5~--4~-4~-7~-|
D-5~--5~-4~-7~-|
A-3~--5~-2~-5~-|
E-----3~-------|



prechorus 1 (We hold our ears and shut our eyes...)

e---------------------------------------------|
H---------------------------------------------|
G--5------------------4----------5----------7-|
D--5---------5--------4----------5----------7-|
A--3(x krát )5--------2(x krát )-3(x krát )-5-|
E----------- 3(x krát )-----------------------|
..............PM..............................




   
chorus 1 (Aááááá We beat indifferent drum...)
                 3x                                           x2
e--------------------------------------------------------------|
H--------------------------------------------------------------|
G-99-9-999-7-----------5-------------------4----------9--------|
D-99-9-999-7-----------5---------5---------4----------9--------|
A-77-7-777 5(x krát)---3(x krát) 5---------2(x krát)- 7(x krát)|
E--------------------------------3(x krát)---------------------|
             
                                                        x3
e-------------------------------------------------------------------|
H-------------------------------------------------------------------|
G-5-------------------4---------5----------7- >-99-9-999-7----------|
D-5---------5---------4---------5----------7- >-99-9-999-7----------|
A-3(  x    )5---------2(x     ) 3(x      )-5- >-77-7-777-5( x    )--|
E-----------3(x      )----------------------- >---------------------|


verse 2 (20 feet high...)

              2x
e--------2~----|
H-5~-(3)-3~-7~-|
G-5~--4~-4~-7~-|
D-5~--5~-4~-7~-|
A-3~--5~-2~-5~-|
E-----3~-------|
H

   
prechorus 2(We piss down throats...)           refrén 2 (Aáááá...) 3x
                                                  
e---------------------------------------------   --------------------|
H---------------------------------------------   --------------------|
G--5------------------4----------5----------7-| >-99-9-999-7---------|
D--5---------5--------4----------5----------7-| >-99-9-999-7---------|
A--3(x      )5--------2(x      )-3(x      )-5-| >-77-7-777-5(x      )|
E----------- 3(x a few)------------------------ >--------------------|
..............PM...............................


  
end (till we're numb!)
e---------------|
H---------------|
G--5------------|
D--5---------5~-|
A--3(x a few)5~-|
E----------- 3~-|                                                             


Rate this shit please
Zdravím Slovensko
Добавлено: 26.04.2012
Другие материалы по этой песне:

Страница создана 22.02.2012
http://primanota.ru/nofx/we-march-to-the-beat-of-indifferent-drum-chords.htm
Привет, Гость.
Предлагаем пройти революционный курс по гитаре.
Подарок от PrimaNota.Ru, забирай!