PrimaNota.ru - самый крупный в мире бесплатный архив песенных текстов, аккордов, табулатур и нот


Nofx - Usa-holes - текст песни, таба, бас-таба, видео

Регистрация Запомнить меня
Войти через:  Facebook Google Twitter Vk Yandex Mail.ru

Nofx - Usa-holes - текст песни, таба, бас-таба, видео

Печатать
Просмотров: 205
----------------------------------------------------------------------------
                             USA-HOLES - NoFX
----------------------------------------------------------------------------
Tabbed by:TheMeese_2
Email:sum_41_freak_8@hotmail.com

Tuning:Standard

Intro(Pt.1)/Verse{after bass plays it's thing 3 and 3/4 times}
e|-------------------------------------------------------------------------|
B|-------------------------------------------------------------------------|
G|-------7-9---------------------------------------------------------------|
D|---5-7-7-9---------------------------------------------------------------|
A|---5-7-5-7---------------------------------------------------------------|
E|---3-5-------------------------------------------------------------------|

Intro(Pt.2){after bass plays it's thing 3 and 3/4 more times}
e|-------------------------------------------------------------------------|
B|-------------------------------------------------------------------------|
G|----7-9-9----------2-4-5-4-2-----------7-9-9-------------(9)-------------|
D|5-7-7-9-9-9-10---5-2-4-5-4-2-5-2---5-7-7-9-9-9-10---5-7-5(9)-2-12-14-12-9|
A|5-7-5-7-7-9-10---5-0-2-3-2-0-5-2---5-7-5-7-7-9-10---5-7-5(7)-2-10-12-10-7|
E|3-5-------7-8----3-----------3-0---3-5-------7-8----3-5-3----0---------|x2
(End on chord in brackets the second time)                  

Intro(Pt.1)/Verse{after bass plays it's thing 3 and 3/4 times}
e|-------------------------------------------------------------------------|
B|-------------------------------------------------------------------------|
G|-------7-9---------------------------------------------------------------|
D|---5-7-7-9---------------------------------------------------------------|
A|---5-7-5-7---------------------------------------------------------------|
E|---3-5-------------------------------------------------------------------|

Chorus {after bass plays it's thing 3 and 3/4 more times}
e|---------------------------------------------------------------------|
B|---------------------------------------------------------------------|
G|-------7-5-5555555-7-7777777-----------------------(99xx99xx99xx99)--|
D|---5-7-7-5-5555555-7-7777777-{5-5555555-4-5555555}-(99xx99xx99xx99)--|
A|---5-7-5-3-3333333-5-5555555-{5-5555555-4-5555555}-(77xx77xx77xx77)--|
E|---3-5-----------------------{3-3333333-2-3333333}-------------------|x2
(Play part in brackets and skip the part in curly brackets the second time through)

Post-Chorus
e|-------------------------------------------------------------------------|
B|-------------------------------------------------------------------------|
G|-------------5-5555-------------5-55-------------------------------------|
D|-5-5555------5-5555-7-7777------5-55-------------------------------------|
A|-5-5555------3-3333-7-7777------3-33-------------------------------------|
E|-3-3333-------------5-5555-----------------------------------------------|

Verse 2(Pt.1)
e|-------------------------------------------------------------------------|
B|-------------------------------------------------------------------------|
G|-------7-9---------------------------------------------------------------|
D|---5-7-7-9---------------------------------------------------------------|
A|---5-7-5-7---------------------------------------------------------------|
E|---3-5-------------------------------------------------------------------|

Verse 2(Pt.2){after bass plays it's thing 3 and 3/4 times}
e|-------------------------------------------------------------------------|
B|-------------------------------------------------------------------------|
G|---12-11-10-9------------------------------------------------------------|
D|---12-11-10-9------------------------------------------------------------|
A|---10-9--8--7------------------------------------------------------------|
E|-------------------------------------------------------------------------|

Chorus {after bass plays it's thing 3 and 3/4 more times}
e|---------------------------------------------------------------------|
B|---------------------------------------------------------------------|
G|-------7-5-5555555-7-7777777-----------------------(99xx99xx99xx99)--|
D|---5-7-7-5-5555555-7-7777777-{5-5555555-4-5555555}-(99xx99xx99xx99)--|
A|---5-7-5-3-3333333-5-5555555-{5-5555555-4-5555555}-(77xx77xx77xx77)--|
E|---3-5-----------------------{3-3333333-2-3333333}-------------------|x2
(Play part in brackets and skip the part in curly brackets the second time through)

Post-Chorus
e|-------------------------------------------------------------------------|
B|-------------------------------------------------------------------------|
G|-------------5-5555-------------5-55-------------------------------------|
D|-5-5555------5-5555-7-7777------5-55-------------------------------------|
A|-5-5555------3-3333-7-7777------3-33-------------------------------------|
E|-3-3333-------------5-5555-----------------------------------------------|

Solo (Don't Have it tabbed... sorry)

Post-Solo
e|------------|----------------------------------------------------------|
B|------------|----------------------------------------------------------|
G|---12-14-12-|-9-9999999-5-5555555-7-7777777----------------------------|
D|---12-14-12-|-9-9999999-5-5555555-7-7777777-5-555-4-444----------------|
A|---10-12-10-|-7-7777777-3-3333333-5-5555555-5-555-4-444----------------|
E|------------|-------------------------------3-333-2-222----------------|x4
(Repeat the second part 4 times)

Outro
e|-----------------------------------------------------------------------|
B|-----------------------------------------------------------------------|
G|----7-9-9----------2-4-5-4-2-------------------------------------------|
D|5-7-7-9-9-9-10---5-2-4-5-4-2-5-2---------------------------------------|
A|5-7-5-7-7-9-10---5-0-2-3-2-0-5-2---------------------------------------|
E|3-5-------7-8----3-----------3-0---------------------------------------|x2

| /  slide up
| \  slide down
| h  hammer-on
| p  pull-off
| ~  vibrato
| +  harmonic
| x  Mute note
============================================================================
Добавлено: 12.06.2012
Другие материалы по этой песне:

Страница создана 17.03.2012
http://primanota.ru/nofx/usa-holes-chords.htm
Привет, Гость.
Предлагаем пройти революционный курс по гитаре.
Подарок от PrimaNota.Ru, забирай!