PrimaNota.ru - самый крупный в мире бесплатный архив песенных текстов, аккордов, табулатур и нот


Nofx - Totally Fucked - текст песни, бас-таба, видео

Регистрация Запомнить меня
Войти через:  Facebook Google Twitter Vk Yandex Mail.ru

Nofx - Totally Fucked - текст песни, бас-таба, видео

Печатать
Просмотров: 146
# end-intro # 0:22 #=play 4X %=pause    # end-slow-verse # 0:32 #=play--| 4X
G%%%%%%--------------------|            G-------------------------------|
D%%%%%%----#---------------|            D----#-----------#--------------|
A%%%%%%5--2------#---------|            A---5------#----7---------------|
E%%%%%%---------0----------|            E---------5---------------------|
:
# verse # *=play 6X #=play 3X
G----*-------*---*-------*--#----*-------*---*--------------#----*--|
D---5----*--3---5----*--5---3-#-5-------1---3----*-------*--3-#-5---|
A-------1-----------1---------3------*----------1----*--1-----3-----|
E-----------------------------------3---------------3---------------|
:
# chorus # *=play 7-8X
G----*------------------------------|
D---3-------02305323-*-------*------|
A-------------------3-------3-------|
E-----------------------------------|
:
# bridge # #=play 3-4X
G------------------#---#---#--------#--#---#-------#--------------|
D-----------------3---3---3-----5-35--5---5-------3----#----------|
A------#---#--1-1-----------5-3---------------1-1-----3----#------|
E---3-3---3-----------------------------------------------3-------|
:
# end-slow-verse2 # #=play 4X
G----#-----------#---------|
D---3------#----5----------|
A---------3----------------|
E--------------------------|
:
# verse2 # *=play 6X #=play 3X
G----*-------*---*-------*--#----*---*---*---*--------------#----*--|
D---5----*--3---5----*--5---3-#-5---5---1---3----*-------*--3-#-5---|
A-------1-----------1---------3-----------------1----*--1-----3-----|
E---------------------------------------------------3---------------|
:
Then play chorus.
:
# outro # #=play 3-4X
G------------------#---#---#-----------------------#-------------------------|
D-----------------3---3---3-----------------------3----#---------------------|
A------#---#--1-1-----------5-3----#---#---#--1-1-----3----#-----------------|
E---3-3---3---------------------3-3---3---3---------------3-------------/15--|
Добавлено: 27.03.2012
Другие материалы по этой песне:
  • Аккорды и текст

Страница создана 24.03.2012
http://primanota.ru/nofx/totally-fucked-chords.htm
Привет, Гость.
Предлагаем пройти революционный курс по гитаре.
Подарок от PrimaNota.Ru, забирай!