PrimaNota.ru - самый крупный в мире бесплатный архив песенных текстов, аккордов, табулатур и нот


Nofx - The War On Errorism - бас-таба, видео

Регистрация Запомнить меня
Войти через:  Facebook Google Twitter Vk Yandex Mail.ru

Nofx - The War On Errorism - бас-таба, видео

Печатать
Просмотров: 76
Artist:NoFX
Album:The War ON Errorism
year:2004
Tabbed By:NoFX_2525

01. The Separation of Church and Skate
02. The Irrationality of Rationality
03. Franco Un-American
04. Idiots Are Taking Over
05. She's Nubs
06. Mattersville
07. Decom-poseur
08. Medio-core
09. Anarchy Camp
10. American Errorist (I Hate Hate Haters)
11. We Got Two Jealous Agains
12. 13 Stitches
13. Re-gaining Unconsciousness
14. Whoops, I OD'd


01.The Seperation Of Church And Skate
Intro (0:37)

G|----------------------------------------------------------------------|
D|-----------------------0----------------------------------------------|
A|--0-----3-------------------------------------------------------------|
E|---------------3------------------------------------------------------|
(Let all those notes ring for about 2 seconds)

Intro Continued (0:43)
G|----------------------------------------------------------------------|
D|----------------------------------------------------------------------|
A|--0706-00-5353-0706-00-5353-0706-00-5353-0706-00-00-------------------|
E|----------------------------------------------------------------------|

Not 100% certain if this correct but no one should be able to tell with the guitar over the top

Verse 1(0:51)
G|----------------------------------------------------------------------|
D|----------------------------------------------------------------------|
A|--0000---33-------0706------0000---33---------00----------------------|
E|-------11---3333-----------------11--3333-----------------------------|
Palm Muted..............            P.M......................

Chorus (0:57)
G|----------------------------------------------------------------------|
D|----------------------------------------------------------------------|
A|--00000000-------------33333333---------------------------------------|
E|-------------11111111-------------33334444----------------------------|

G|----------------------------------------------------------------------|
D|----------------------------------------------------------------------|
A|--00000000-----------33333333-000000788888888888888888----------------|
E|------------11111111--------------------------------------------------|

After chorus (1:15)

G|-----------------------------------------------------------------------|
D|-----------------------------------------------------------------------|
A|--0------------------0--0706-------------------------------------------|
E|-----------------------------------------------------------------------|

Let the first A ring straight after the lots of 8's. Then play the second one then rest straight afterwards.

Verse 2 (1:21)
G|-----------------------------------------------------------------------|
D|-----------------------------------------------------------------------|
A|---0000----33---------0706------0000----33---------00------------------|
E|--------11---3333---------------------11-----3333----------------------|
     Palm Muted.........                P.M............................

Chorus (1:28)
G|-----------------------------------------------------------------------|
D|-----------------------------------------------------------------------|
A|--00000000-------------33333333----------------------------------------|
E|-------------11111111-------------33334444-----------------------------|

G|-----------------------------------------------------------------------|
D|-----------------------------------------------------------------------|
A|--00000000-----------33333333--000000788888888888888888----------------|
E|------------11111111---------------------------------------------------|

Acoustic interlude (1:46) [Rest]

Guitar solo (1:57)
G|-----------------------------------------------------------------------|
D|------------333333-----------------------------------------------------|
A|-00000000------------000000xx333333---000000---------------------------|
E|------------------xx----------------xx---------------------------------|

G|-----------------------------------------------------------------------|
D|--------------000000----22222222---------------------------------------|
A|--xx333333xx---------xx------------------------------------------------|
E|-----------------------------------------------------------------------|

Bridge (2:10)
G|-----------------------------------------------------------------------|
D|-----------------------------------------------------------------------|
A|--0------0------0---0706-0053------------------------------------------|
E|-----------------------------------------------------------------------|
Verse 3 (2:18)
G|-----------------------------------------------------------------------|
D|-----------------------------------------------------------------------|
A|-0000---33------0706-0000---33-----------------------------------------|
E|------11---3333-----------11---3234------------------------------------|
Palm Muted ...........     P.M..............

Chorus (2:24)
G|-----------------------------------------------------------------------|
D|-----------------------------------------------------------------------|
A|-00000000-----------33333333-------------------------------------------|
E|-----------11111111-----------33334444---------------------------------|

G|-----------------------------------------------------------------------|
D|-----------------------------------------------------------------------|
A|-00000000-----------33333333-------------------------------------------|
E|-----------11111111-----------33334444---------------------------------|

G|-----------------------------------------------------------------------|
D|-----------------------------------------------------------------------|
A|-00000000-----------33333333-------------------------------------------|
E|-----------11111111-----------33334444---------------------------------|

G|-----------------------------------------------------------------------|
D|-----------------------------------------------------------------------|
A|-000000788888888888888888----------------------------------------------|
E|-----------------------------------------------------------------------|

Outro (2:56)

G|----------------------------------------------------------------------|
D|----------------------------------------------------------------------|
A|-00030---030---00030---030--00-00-------------------------------------|
E|-------32----3-------32----3------------------------------------------|

G|----------------------------------------------------------------------|
D|----------------------------------------------------------------------|
A|-00030--030--00030---030--00030--030--00------------------------------|
E|------32----3-----32----3------32----3--------------------------------|


02.The Irrationality Of Rationality:
Intro: (x5)
G|--x-------------|--x-------------------------------------------------------------|
D|--x-------------|--x-------------------------------------------------------------|
A|--x----88-------|--x-----88------------------------------------------------------|
D|--x-55----55-7--|--x--55----55---------------------------------------------------|

Verse 1:
G|-----------------------------|--------------|------------------------------------|
D|--2-----2-----1--------------|--------------|-----------1-----------1------------|
A|----3-0---3-0---3-------3-0--|-----88-------|-----88------3-------3---3-------3--|
D|------------------3-1-3------|--55----55-7--|--55----55-----3-1-3-------3-1-3----|

Main Riff: (x8 for each)
G|---------------------------------------------------------------------------------|
D|--------3-----------3--------5--3--------5---------------------------------------|
A|--3--0-----3--3--0-----3--3--------3--3------------------------------------------|
D|---------------------------------------------------------------------------------|

Bridge:
G|---------------------------------------------------------------------------------|
D|---------------------------------------------------------------------------------|
A|--0-----88----------88----------88-----12-----88---------------------------------|
D|-----55----55-7--55----55-7--55----55------55----55------------------------------|
   x10         x10         x10          x10

Bridge 2:
G|---------------------------------------------------------------------------------|
D|---------------------------------------------------------------------------------|
A|--0-----88---------------3~------------------------------------------------------|
D|-----55----55-7--77--5-5---------------------------------------------------------|
   x10         x10

Verse 2:
G|---------------------------------------------------------------------------------|
D|---------------------------2-----1-----------------------------------------------|
A|--0*----88----------88--------3-----3--------------------------------------------|
D|-----55----55-7*-55----55--------------------------------------------------------|
   x10         x10

Outro:
G|---------------------------------------------------------------------------------|
D|--3~-----------------------------------------------------------------------------|
A|-----------------88--------------------------------------------------------------|
D|--------------55----55-77--------------------------------------------------------|


03.Franco Un-American:
Intro
  Q=150
 2/4    4/4
  Gtr I
  W      Wx11          H.      Q
|------|-------------|-------------|
|------|-------------|-------------|
|------|-------------|---------5/--|
|------|-------------|-------------|


    Q  E E E E E E   Q  E E E E E E   Q  E E E E E E   E E E E E E E E
||-----------------|----------------|----------------|-------------------||
||o----------------|----------------|----------------|------------------o||
||o--------3-3-3---|----------------|----------------|-3-3-3---2-2-2----o||
||--3--3-----------|-3--3---0-0-0---|-5--5---5-5-5---|-------------------||


   Verse 1
    E E E E E E E E   E E E E E E E E   E E E E E E E E   E E E E E E E E
||------------------|-----------------|-----------------|-------------------||
||o-----------------|-----------------|-----------------|------------------o||
||o---------3-3-3-3-|-----------------|-----------------|-3-3-3-3-5-5-5-5--o||
||--3-3-3-3---------|-3-3-3-3-0-0-0-0-|-5-5-5-5-5-5-5-5-|-------------------||


 Interlude
  E E E E E E E E   E E E E E E E E   E E E E E E E E   E E E E E E E E
|-----------------|-----------------|-----------------|-----------------|
|-----------------|-----------------|-----------------|-----------------|
|-----------------|-----------------|-----------------|-3-3-3-3-5-5-5-5-|
|-3-3-3-3-3-3-3-3-|-2-2-2-2-2-2-2-2-|-0-0-0-0-0-0-0-0-|-----------------|


   Chorus
    Q  E E Q  E E   Q  E E Q  E E  3x Q  E E Q  E E   E H..
||----------------|----------------||---------------|----------|
||o---------------|---------------o||---------------|----------|
||o--------5--5-5-|--------3--3-3-o||--------5--5-5-|----------|
||--3--3-3--------|-0--0-0---------||-3--3-3--------|-0--------|


   Verse 2
    Q  E E E E E E   Q  E E E E E E   Q  E E E E E E   E E E E E E E E
||-----------------|----------------|----------------|-------------------||
||o----------------|----------------|----------------|------------------o||
||o--------3-3-3---|----------------|----------------|-3-3-3---2-2-2----o||
||--3--3-----------|-3--3---0-0-0---|-5--5---5-5-5---|-------------------||


    Q  E E Q  E E   Q  E E Q  E E   Q  E E E E E E   Q  E E Q  E E
||----------------|---------------|----------------|-----------------||
||o---------------|---------------|----------------|----------------o||
||o--------3--3-3-|---------------|----------------|-3--3-3-5--5-5--o||
||--3--3-3--------|-3--3-3-0--0-0-|-5--5-5-5-5-5-5-|-----------------||


    E E E E E E E E   E E E E E E E E   E E E E E E E E   E E E E E E E E
||------------------|-----------------|-----------------|-------------------||
||o-----------------|-----------------|-----------------|------------------o||
||o---------3-3-3-3-|-----------------|-----------------|-3-3-3-3-5-5-5-5--o||
||--3-3-3-3---------|-3-3-3-3-0-0-0-0-|-5-5-5-5-5-5-5-5-|-------------------||


    Q  E E Q  E E   Q  E E Q  E E   Q  E E E E E E
||----------------|---------------|----------------|
||o---------------|---------------|----------------|
||o--------3--3-3-|---------------|----------------|
||--3--3-3--------|-3--3-3-0--0-0-|-5--5-5-5-5-5-5-|


  Q  E E Q  E E     E E E E E E E E   E E E E E E E E
|----------------||-----------------|-----------------|
|---------------o||-----------------|-----------------|
|-3--3-3-5--5-5-o||-5-5-5-5-5-5-5-5-|-5-5-5-5-5-5-5-5-|
|----------------||-----------------|-----------------|


 Bridge
  Wx8
|--------|
|--------|
|--------|
|--------|


   Out-Chorus
    E E E E E E E E   E E E E E E E E  3x E E E E E E E E   E H..
||------------------|------------------||-----------------|----------*|
||o-----------------|-----------------o||-----------------|----------*|
||o---------5-5-5-5-|---------3-3-3-3-o||---------5-5-5-5-|----------*|
||--3-3-3-3---------|-0-0-0-0----------||-3-3-3-3---------|-0--------*|


Duration Legend
---------------
W - whole; H - half; Q - quarter; E - 8th; S - 16th; T - 32nd; X - 64th; a - acciaccatura
+ - note tied to previous; . - note dotted; .. - note double dotted
Uncapitalized letters represent notes that are staccato (1/2 duration)
Irregular groupings are notated above the duration line
Duration letters will always appear directly above the note/fret number it represents the
duration for.  Duration letters with no fret number below them represent rests.  Multi-
bar rests are notated in the form Wxn, where n is the number of bars to rest for.  Low
melody durations appear below the staff

Tablature Legend
----------------
 h   - hammer-on
 p   - pull-off
 b   - bend
 pb  - pre-bend
 r   - bend release (if no number after the r, then release immediately)
 /\  - slide into or out of (from/to "nowhere")
 s   - legato slide
 S   - shift slide
  - natural harmonic
[n]  - artificial harmonic
n(n) - tapped harmonic
 ~   - vibrato
 tr  - trill
 T   - tap
 TP  - trem. picking
 PM  - palm muting
\n/  - tremolo bar dip; n = amount to dip
 \n  - tremolo bar down
 n/  - tremolo bar up
/n\  - tremolo bar inverted dip
 =   - hold bend; also acts as connecting device for hammers/pulls
 <>  - volume swell (louder/softer)
 x   - on rhythm slash represents muted slash
 o   - on rhythm slash represents single note slash

Misc Legend
-----------
 |  - bar
||  - double bar
||o - repeat start
o|| - repeat end
*|  - double bar (ending)
 :  - bar (freetime)
 $  - Segno
 &  - Coda
Tempo markers -  = BPM(8/16=s8/s16), where s8 = swing 8ths, s16 = swing 16ths

04.Idiot Are Taking Over:
Intro				8x
1|----8-10-8-10-8----8-10-8-7-7-7-|
2|-888-8--8-8--8--888-8--8-8-8-8--|
3|--------------------------------|
4|--------------------------------|

Verse
1|------------------------------------------------------------------------|
2|------------------------------------------------------------------------|
3|-9999-9999-5555-5555-----------13131313-13131313-9999-9999-5555-5555----|
4|---------------------6666-6666---------------------------------------6~-|
Cont.
1|----8-10-8-10-8----8-10-8-10-8-|-------------------------------------------------|
2|-888-8--8-8--8--888-8--8-8--8--|-------------------------------------------------|
3|-------------------------------|-9999-9999-5555-5555-----------13131313-13131313-|
4|-------------------------------|---------------------6666-6666-------------------|
Cont.			Chorus
1|---------------------|---------------------------------------------------------------|
2|---------------------|---------------------------------------------------------------|
3|-9999-9999-5555-5555-|------------------------------------6666-6666------------------|
4|---------------------|66666666-66666666-33333333-33333333-----------66666666-6666666-|
Cont.
1|-------------------------------|----8-10-8-10-8----8-10-8-10-8--|
2|-------------------------------|-888-8--8-8--8--888-8--8-8--8---|
3|----------------------------5~-|--------------------------------|
4|-33333333-33333333-11111111----|--------------------------------|

Verse	1x
Chorus	1x

Bridge			       2x	      2x	       2x	      4x
1|--------------|----------------|--------------|----------------|--------------|
2|-8-10-11-10-8-|-8-10h11p10-8---|-8-10-11-10-8-|-8-10h11p10-8---|-8-10-11-10-8-|
3|--------------|--------------9-|--------------|--------------9-|--------------|
4|--------------|----------------|--------------|----------------|--------------|
		2x	       2x
1|----------------|--------------|--------------|                      |
2|-8-10h11p10-8---|-8-10-11-10-8-|-8-10h11p10-8-|Into 2nd half of verse|
3|--------------9-|--------------|--------------|                      |
4|----------------|--------------|--------------|                      |

Last Chorus
1|-------------------------------------------------------------------------|
2|-------------------------------------------------------------------------|
3|---------------------------------------------5555-5555-------------------|
4|-66666666-66666666-33333333-3333333-11111111-----------66666666-66666666-|
				       3x
1|---------------------------------------|
2|---------------------------------------|
3|-8888-8888-5555-5555-------------------|
4|---------------------66666666-66666666-|

1|-------------------------8-10-8-10-8----8-10--------|
2|----------------------888-8--8-8--8--888-8---88888\-|
3|-8888-888-5555-5555---------------------------------|
4|-------------------6~-------------------------------|

05.She's Nubs:
Intro
G|----------------------------------|
D|----------------------------------|
A|--5~--5~-7~-5~--7~~----5~--5~-7~--|
E|----5~--------5~---------5~-------|

Pre Chorus (0:26)
G|-----------------------------------------------|
D|-----------------------------------------------|
A|--5--7--0000000h5-0000000h5-0000000h5-0000000--|
E|-----------------------------------------------|

Chorus x3 (0:33)
G|-------------------------------------------|
D|-------------------------------------------|
A|--5555-0000-5555-0000-5555-0000-77777777---|
E|-------------------------------------------|

G|------------------------------------------|
D|------------------------------------------|
A|--5555-0000-5555-0000-5555-7777-00000000--|
E|------------------------------------------|

Bridge (1:08)
G|----------------------------------|
D|----------------------------------|
A|-5#-0#-5#-7#-5#-0#-5555-0000--7#--|
E|----------------------------------|

Chorus x2 (1:20)
G|--------------------------------------------|
D|--------------------------------------------|
A|--5555-0000-5555-0000-5555-0000-77777777----|
E|--------------------------------------------|

G|------------------------------------------|
D|------------------------------------------|
A|--5555-0000-5555-0000-5555-7777-00000000--|
E|------------------------------------------|

On 3rd time (1:43)
G|--------------------------------------|
D|--------------------------------------|
A|--5555-0000-5555-0000-5555-0000-7~----|
E|--------------------------------------|

Outro x1 (1:52)
G|------------------------|
D|------------------------|
A|--5~--5~-7~--5-7-00000--|
E|----5~------------------|

06.Mattersville:
>=Keep picking
G--------------------------------------------------------|
D--------------------------------------------------------|
A---10>-----12>------5>-----10>----7>----0>---3>----/10--|
E--------------------------------------------------------|

Chorus
G-------------------------------------------------------|
D-------------------------------------------------------|
A-----3>----/10>-----------3>---/10>--------------------|
E-0>--------------11>--0>-------------11>---------------|

Verse 2

G-------------------------------------------------------|
D-------------------------------------------------------|
A--3>------5>------3>---5>------------------------------|
E------3>------0>---------------------------------------|


Verse 3
G--------------------------------------------------------|
D--------------------------------------------------------|
A--10>--12>--5>--10>--7>--0>--3>--5>--10>--12>---5>--/10-|
Verse3 continued
G-------------------------------------------------------|
D-------------------------------------------------------|
A-----7>--0>--3>--10>-----------------------------------|
E-------------------------------------------------------|

Chorus2:

G-------------------------------------------------------|
D-------------------------------------------------------|
A-----3>---/10>-----------3>---/10>---------------------|
E-0>------------11>---0>-------------11>----------------|

Verse3
G-------------------------------------------------------|
D-------------------------------------------------------|
A--3>----10>----5>----0>----3>----5>--------------------|
E-------------------------------------------------------|

Ending

G--------------------------------------------------------|
D-------------------10------9----------------------------|
A--------------/10------12-----10---12---10---9---10-----|
E--------------------------------------------------------|

07.Decom-Poseur:
# intro #  *=play 3X  %=pause
G------------------------*--*--*--*-------------------*--*--*--*->
D-----------------------5--4--3--3-------------------5--4--3--3-->
A---------------------------------------------------------------->
E---\\-5-355-355-355-35-------------5-355-355-355-35------------->
>
>---------------------*--*--*--*-----------------------------%%|
>--------------------5--4-10-10------------------------------%%|
>--------------------------------------------------*--*--*--*%%|
>---5-355-355-355-35-------------5-355-355-355-35-3--2--1--1-%%|
:
# verse #  *=play 6X  #=play 9X
G----------------------------------------------------------|
D----*----*----*----*----*----*----*----*------------------|
A---0----0----8----8----0----0----8----8-----#------*---*--|
E-------------------------------------------8---3//8---7---|
:
# verse2 #  *=play 12X  #=play 9X
G---------------------------------------------------------------------|
D----*-----*-----*-----*-----------------*-------------------*-----*--|
A---0-----8-----0-----8------*-----*----8------#-------*----5-----8---|
E---------------------------8-----6-----------8----3//8---------------|
:
# bridge #  *=play 3X
G---------------------*--*--*--*-----------------------------%%|
D--------------------5--4--3--3------------------------------%%|
A--------------------------------------------------*--*--*--*%%|
E---5-355-355-355-35-------------5-355-355-355-35-3--2--1--1-%%|
:
Repeat verse2 (play last note with pause 9X).
:
# solo-bg #  *=play 12X
G-------------------------------------------------------------------|
D----*-----*-----------*-----*-----*-----------*-----*-----*-----*--|
A---0-----5------*----3-----0-----5------*----3-----8-----3----10---|
E---------------3-----------------------3---------------------------|
:
# verse3 #  *=play 6X  #=play 9X
G--------------------------------------------------------------------------------|
D-----*----*----*----*----*----*----#-------------------*----------------*----*--|
A---12---12----8----8----0----0----8--/1515\--*----*---8-----#------*---5----8---|
E--------------------------------------------8----6---------8---3//8-------------|
:
# outro # X2 *=play 12X  !end whit first note!
G-------------------------|
D----*-----------------*--|
A---0------*-----*----5---|
E---------3-----1---------|

08.Medio-Core:
Intro: Second time only.  The numbers in parentheses are notes that the guitar
plays, but bass doesn\'t.
G-------------------------(12)----------------(12)-----------------------------------|
D----(12)-------12------11---------11-------10-------10------(12)--------------------|
A--10--------10----10-10---------10---10-10--------10---10-10------------------------|
E------------------------------------------------------------------------------------|

Verse X2
G-------------------------------  X2 -------5-55-55----------------------------------|
D-------------------------------     -----------------------1-11-3-33-5-55-----------|
A-------------10-10-10-9-8-----       -3-33-----------3-33---------------------------|
E-3-33-3-33---------------------     ------------------------------------------------|

End verse (some old, some new, the same formula stays true)
G----------------------------------------------------------------------------------|
D----------------------------------------------------------------------------------|
A-----0-2-3-5-3-2-3-0----0-2-3-2-0-2-5--5-5-5--------------------------------------|
E---3------------------3-----------------------------------------------------------|

Chorus
G--------------------------12------------X4   ----------------------------------|
D----------------------12-----9----------       --------------------------------|
A--10-10-10-10-10------------------------       --10~--------------12~----------|
E------------------------------------------       ---------10~------------------|

G-----------------------------------------|
D-----------------------------------------|
A----------------------33333333-66666-----|
E--3333333-2-1111111-3--------------------|

Verse X2 with lots of distortion WITHOUT END VERSE

End verse 2      * = play 16 times
G----------------------------------------------------------------------------------|
D--------------------------*--------*----------*---------*---------*-----------*---|
A--------6-6------8-8---10--------9----------7---------5---------3-----------5-----|
E---3-3------6-6-------------------------------------------------------------------|

G-----------------------------------------------------------------------------------|
D------*---------------*-------------------*----------------*-----------------------|
A---10--------------10------------------3----------------3--------------------------|
E-----------------------------------------------------------------------------------|

# = play 8 times
G---------------------------------------------------------------------------|
D----#-------------------------#--------------------#-----------------------|
A?10/------------#----------10/---------#----------3---------6-8-68-10------|
E---------------3----------------------3------------------------------------|

G------------------------------------------------------------------------------------|
D---------------#----------#----------#------------#---------------------------------|
A----#--------5----------0----------3------------5-----------------------------------|
E---3--------------------------------------------------------------------------------|

End Chorus
G----------------------12-----------X4    -------------------------------|
D------------------12------9--------      -------------------------------|
A--10-10-10-10-10-------------------      --10~---------------12~--------|
E-----------------------------------      -----------10~-----------------|

Then repeat the first section of the chorus 4 times again, followed by:

G----------------------------------------------|
D----------------------------------------------|
A------------3~------5~-------5----------------|
E?3~----------------------------3~-------------|

09.Anarchy Camp:
This  cannot be tabbed	because it is played on the guitar, lead guitar and on the Saxofone(By Eric Melvin) Sorry!

10.American Errorist(I Hate Hate Haters):
Sorry couldnt figure this one out either:(

11.We Got Two Jelous Agains:
INTRO

G|----------------------------------------------------------------||
D|----------------------------------------------------------------||
A|----------------------------------------------------------------||
E|5-5-5-5-5-5-5-5-5-5-5-5-5---------------------------------------||

G|----------------------------------------------------------------||
D|----------------------------------------------------------------||
A|-----------------------------------3---3/5----------------------||
E|5-5-5-5-5-5-1-1-1-1-1-1-3-3-3-3-3----3-----5--------------------||


G|----------------------------------------------------------------||
D|----------------------------------------------------------------||
A|----------------8-8-8-8-8-8-8-8-8-----------------5-5-5-5-5-5-5-||
E|-5-5-5-5-5-5-5--------------------3-3-3-3-3-3-3-3---------------||


G|----------------------------------------------------------------||
D|----------------------------------------------------------------||
A|------------3-3-3-3-3-3-----------------------------------------||
E|1-1-1-1-1-1-------------1-1-1-1-1-1-1-1--3-3-3-3-3-3-3----------||

interlude (i guess)
G|-------------------------|--------------------------------------||
D|-------------------------|--------------------------------------||
A|3333---3333---3333------3|3333--3333---3333---------------------||
E|----54-----43-----54-13--|----54----43-----54-13----------------||


G|----------------------------------------------------------------||
D|----------------------------------------------------------------||
A|3-3-3-3-3-3-----------------------------------------------------||
E|------------3-3-3-3-3-3-5-5-5-5-5-1-1-1-1-1-1-1-----------------||


G|----------------------------------------------------------------||
D|----------------------------------------------------------------||
A|--------------3-3-3-3-3-3-3-------------------------------------||
E|1-1-1-1-1-1-1--------------1-1-1-1-1-1-1-3-3-3-3-3-3------------||


G|----------------------------------------------------------------||
D|----------------------------------------------------------------||
A|-3-3-3-3-3-3-3-------------------------7-7-7-7-7-7-7-7----------||
E|--------------3-3-3-3-3-3-5-5-5-5-5-5-5-------------------------||


G|----------------------------------------------------------------||
D|----------------------------------------------------------------||
A|------------3-3-3-3-3-3-3---------------------------------------||
E|-1-1-1-1-1-1--------------1-1-1-1-1-1-3-3-3-3-3-3-3-------------||


G|----------------------------------------------------------------||
D|----------------------------------------------------------------||
A|----------------------------------------------------------------||
E|--3-3-3-3-3-3-3-3-3-3-3-3-3-3-3-3-3-3-3-3-3-3-3-3-3-3-3-3-3-3---||


G|-------------------------|--------------------------------------||
D|-------------------------|--------------------------------------||
A|3333---3333---3333------3|3333--3333---3333---------------------||
E|----54-----43-----54-13--|----54----43-----54-13----------------||

G|----------------------------------------------------------------||
D|----------------------------------------------------------------||
A|-3-3-3-3-3-3-3-3-3-3--------------------------------------------||
E|--------------------3-3-3-3-3-3-3-5-5-5-5-5-5-1-1-1-1-1-1-------||


G|--------------------------------------------------------------------|
D|--------------------------------------------------------------------|
A|-----------3-3-3-3-3-3----------------------------------------------|
E|-1-1-1-1-1-------------1-1-1-1-1-1-1-1-3-3-3-3-3-3------------------|

G|----------------------------------------------------------------||
D|----------------------------------------------------------------||
A|-3-3-3-3-3-3-3-3------------------------------------------------||
E|-----------------3-3-3-3-3-3-3-4-4-4-4-4-4-4-4-4-4-4-4-4-4-4----||

G|----------------------------------------------------------------||
D|----------------------------------------------------------------||
A|-3-3-3-3-3-3-3-----------------3-3-3-3-3-3-3-3-3-3-3-3-3-3-3-3--||
E|--------------3-3-3-3-3-3-3-3-3---------------------------------||


G|----------------------------------------------------------------||
D|----------------------------------------------------------------||
A|----------------------------------------------------------------||
E|-3-3-3-3-3-3-3-3-3-3-3-3-3-3-3-3--------------------------------||

G|--------------------------------------------------------------------|
D|--------------------------------------------------------------------|
A|---------------------------3-3-3-3-3-3-3----------------------------|
E|5-5-5-5-5-5-5 1-1-1-1-1-1-1---------------3-3-3-3-3-3-3-------------|

G|----------------------------------------------------------------||
D|----------------------------------------------------------------||
A|-----------------------------3-3-3-3-3-3-3-3-3-3-3-3------------||
E|-5-5-5-5-5-5-5-5-1-1-1-1-1-1------------------------------------||


G|-------------------------|--------------------------------------||
D|-------------------------|--------------------------------------||
A|3333---3333---3333------3|3333--3333---3333---------------------||
E|----54-----43-----54-13--|----54----43-----54-13----------------||

12.13 Stiches:
G--------------------------------|
D-555555-777777---------5555555--|
A---------------3333333----------|
E--------------------------------|
(0:16)
G-----------------------------------------------|
D-----------------------------------------------|
A-5555555--------3333333------------------------|
E---------000000---------33333333---------------|
(0:25)
G----------------------------------------|
D----------------------------------------|
A-5555555---------333333-555555----------|
E---------0000000----------------3~~-----|
(0:40)
G------------------------------------|
D-555555-7777777--------5555555------|
A----------------333333--------------|
E------------------------------------|
(0:50)
G---------------------------------------------------|
D---------------------------------------------------|  x2
A-5555555--------3333333----------------------------|
E---------000000---------33333333-------------------|

(1:05) solo
G---------------------------------------------|
D---------------------------------------------|
A-5555555----------33333333-------------------|
E---------00000000----------33333333----------|

G---------------------------------------------|
D---------------------------------------------|
A-5555555----------33333333-5555555-----------|
E---------00000000------------------3~~-------|
(1:27)
G---------------------------------------------|
D------555555-777777--------------------------|
A--------------------3333333------------------|
E-\3/------------------------3333333----------|
(1:37)
G---------------------------------------------|
D---------------------------------------------|  x2
A-5555555--------3333333----------------------|
E---------000000---------33333333~~-----------|

13.Re-Gaining Unconsciousness:
Intro Part 1 - 0:00
G----------|
D----------|
A----------|
E--55------|

Intro Part 2 x4 - 0:07
G----------------------------------------|
D-----------------55---------------------|
A----------------------555555------------|
E--55-55555------------------------------|

Verse 0:19
G---------|
D---------|
A---------|
E---5-----|

Chorus - 0:33
G--------------------------------------------------------------------------|
D--------------------------------------------------------------------------|
A------------------77777777-5555555555555555-44444444-22222222-00000000/5--|
E--55555555----------------------------------------------------------------|

Intro Part 2 - 0:46
Verse - 0:52

Sort Of Rumbly Noise - 0:59 (This is played along with the bass drum)
G---------------------------------------------------------------------------|
D---------------------------------------------------------------------------|
A---------------------------------------------------------------------------|
E--5555555555555555555555555555555555555------------------------------------|

Chorus - 1:05

Descending Riff - 1:19
G------------------------------------------------------------------|
D------------------------------------------------------------------|
A------------------------------------------------------------------|
E--55555555-44444444-33333333-22222222-----------------------------|

Half Chorus x2 - 1:32
G-------------------------------------------------------------------|
D-------------------------------------------------------------------|
A-------------------77777777-5555555555555555-----------------------|
E---55555555--------------------------------------------------------|

Desc Riff 2 x4 - 1:51			Don't play the 1st time
G-----------------------------------------------------------------|------------------|
D-----------------------------------------------------------------|------------------|
A-------------------------------------------------55555555-|-77777777----------------|
E--55555555-44444444-33333333-----------------|--------------------------------------|

Outro - 2:23
G-------------------------|
D-------------------------|
A-----5----7--------------|
E--------5----3---5-------|

14.Whoops I Od'd:
G|-9--|-10-|-12-------------------------|
D|-10-|-10-|-10-------------------------|
A|--------------------------------------|
E|--------------------------------------|

G|-5-|-7-|-9----------------------------|
D|-7-|-7-|-7----------------------------|
A|--------------------------------------|
E|--------------------------------------|

G|-10-|-9-|-7-|-5-----------------------|
D|-0--|-0-|-0-|-3-----------------------|
A|--------------------------------------|
E|--------------------------------------|
Couldnt figure out the rest of this song...Sorry guys!! Find it somewhere else.I atleast 
you like the rest of the album! PEACE OUT
Добавлено: 01.01.2014
Другие материалы по этой песне:
  • Аккорды и текст

Страница создана 01.01.2014
http://primanota.ru/nofx/the-war-on-errorism-chords.htm
Привет, Гость.
Предлагаем пройти революционный курс по гитаре.
Подарок от PrimaNota.Ru, забирай!