PrimaNota.ru - самый крупный в мире бесплатный архив песенных текстов, аккордов, табулатур и нот


Nofx - The War On Errorism (album) - таба, бас-таба, видео

Регистрация Запомнить меня
Войти через:  Facebook Google Twitter Vk Yandex Mail.ru

Nofx - The War On Errorism (album) - таба, бас-таба, видео

Печатать
Просмотров: 112
The Separation of Church and Skate 

Intro 
(Guitar 1)
e|---------------------------------------------------------------------------| 
B|---------------------------------------------------------------------------| 
G|---------------------------------------------------------------------------| 
D|----------------------------------------------x8---------------------------| 
A|0-5-3h3h5h3-0-5-3h3h5h3-0-5-3h3h5h3-7-0-6-0--------------------------------| 
E|---------------------------------------------------------------------------| 
(Guitar 2)
e|---------------------------------------------------------------------------| 
B|---------------------------------------------------------------------------| 
G|--------5---------------7--------------------------------------------------| 
D|7-------5-------5-------7--------------------------------------------------| 
A|7-------3-------5-------5--------------------------------------------------| 
E|5---------------3----------------------------------------------------------| 

Verse
e|---------------------------------------------------------------------------| 
B|---------------------------------------------------------------------------| 
G|----------------10-10-10-10------------------------------------------------| 
D|7-7-7-7-7-7-7-7-10-10-10-10-10-10-10-10-5-5-5-5-5-5-5-5---7----7-----------| 
A|7-7-7-7-7-7-7-7-8--8--8--8--10-10-10-10-5-5-5-5-5-5-5-5---7----7-----------| 
E|5-5-5-5-5-5-5-5-------------8--8--8--8--3-3-3-3-3-3-3-3---5----5-----------| 

Chorus
e|---------------------------------------------------------------------------|
B|---------------------------------------------------------------------------|
G|----------------10--------------------------------------10-----------------|
D|-7--------------10-----------10-----5-6-----7-----------10-----10--7-------|
A|-7--------------8------------10-----5-6-----7-----------8------10--7-------|
E|-5---------------------------8------3-4-----5------------------8---5-------|

e|---------------------------------------------------------------------------|
B|---------------------------------------------------------------------------|
G|-9--10---------------------------------------------------------------------|
D|-9--10---------------------------------------------------------------------|
A|-7--8----------------------------------------------------------------------|
E|---------------------------------------------------------------------------|
Bridge
e|-5------1------3------1-------------1------0-------------------------------|
B|-5------3------3------3------1------1------1-------------------------------|
G|-5------2-------------2------2------2------0---------------10--------------|
D|-----------------------------2--------------------7--------10--------------|
A|--------------------------------------------------7--------8---------------|
E|--------------------------------------------------5------------------------|
Solo
e|--12-12-10-----12-10----------12-10----------------------------------------|
B|----------13-10-----13-13h17~------13-13-10-13-10-13-10--^8^---------------|
G|---------------------------------------------------------------------------|
D|---------------------------------------------------------------------------|
A|---------------------------------------------------------------------------|
E|---------------------------------------------------------------------------|

e|---------------------------------------------------------------------------|
B|------------------------10-------------------------------------------------|
G|--10-7-10-7-10-7-10-12-----------------------------------------------------|
D|-----------------------------10-7-10-7-------------------------------------|
A|---------------------------------------------------------------------------|
E|---------------------------------------------------------------------------|

Outro
e|---------------------------------------------------------------------------| 
B|---------------------------------------------------------------------------| 
G|---------------------------------------------------------------------------| 
D|-------------------------x4----7--7--7--7----------------------------------| 
A|0-00-3^p0------0-3^p0----------7--7--7--7----------------------------------| 
E|----------3^-2--------3--------5--5--5--5----------------------------------| 


The Irrationality of Rationality

Intro
e|---------------------------------------------------------------------------|
B|---------------------------------------------------------------------------|
G|-------------------------10------------------------------------------------|
D|--7-7-7-7-7-7-7-7-7----5-10--5---------------------------------------------|
A|--7-7-7-7-7-7-7-7-7----5-8---5---------------------------------------------|
E|--5-5-5-5-5-5-5-5-5----3-----3---------------------------------------------|
Verse
e|---------------------------------------------------------------------------|
B|-1-----1-------------------------------------------------------------------|
G|-2-----0------------------------10-----------------------------------------|
D|-2-----2----3-3--7-7-7-7-7-7--5-10-5---------------------------------------|
A|-------3----3-3--7-7-7-7-7-7--5-8--5---------------------------------------|
E|------------1-1--5-5-5-5-5-5--3----3---------------------------------------|
Chorus
e|---------------------------------------------------------------------------|
B|---------------------------------------------------------------------------|
G|-------------------------10------------------------------------------------|
D|--10-------------7-------10-------10-----------x2--------------------------|
A|--10-------------7-------8--------10---------------------------------------|
E|--8--------------5----------------8----------------------------------------|

e|---------------------------------------------------------------------------|
B|---------------------------------------------------------------------------|
G|---------12-----10------------------12-------------------------------------|
D|--10-----12-----10------10---10-----12-------------------------------------|
A|--10-----10-----8-------10---10-----10-------------------------------------|
E|--8---------------------8----8---------------------------------------------|

Guitar in 2 Verse
e|---------------------------------------------------------------------------|
B|---------------------------------------------------------------------------|
G|---------------------------------------------------------------------------|
D|---------------------------------------------------------------------------|
A|-7--3---5-6--3----------6-6-8--3-------------------------------------------|
E|---------------------------------------------------------------------------|

Bridge
e|--------------------1----1-------------------------------------------------|
B|--------1-----1-----1----1-------------------------------------------------|
G|-5~~----2-----0-----2----2-------------------------------------------------|
D|-5~~----2-----2-----3----3-------------------------------------------------|
A|-3~~----------3------------------------------------------------------------|
E|---------------------------------------------------------------------------|

Franco Un-American 

Intro
e|---------------------------------------------------------------------------|
B|---------------------------------------------------------------------------|
G|---------------------------------------------------------------------------|
D|------------------------------------------x2-------------------------------|
A|-10^-10^-0-10^-10^-0-10^-10^-0-10^-10^-0-----------------------------------|
E|---------------------------------------------------------------------------|

e|---------------------------------------------------------------------------| 
B|---------------------------------------------------------------------------| 
G|---------5----------------------5---7-------5-----------------5---7--------| 
D|---5-----5-----5----2----7-7-7--5---7---5---5--5--2----7-7-7--5---7--------| 
A|---5-----3-----5----2----7-7-7--3---5---5---3--5--2----7-7-7--3---5--------| 
E|---3-----------3----0----5-5-5----------3------3--0----5-5-5---------------| 

e|---------------------------------------------------------------------------|
B|-8p0-8p0-8p0-10p0-8p0-8p0-8p0-12-10-8--------------------------------------|
G|---------------------------------------------------------------------------|
D|---------------------------------------------------------------------------|
A|---------------------------------------------------------------------------|
E|---------------------------------------------------------------------------|

Verse
e|---------------------------------------------------------------------------| 
B|---------------------------------------------------------------------------| 
G|---------5----------------------5---7-------5-----------------5---7--------| 
D|---5-----5-----5----2----7-7-7--5---7---5---5--5--2----7-7-7--5---7--------| 
A|---5-----3-----5----2----7-7-7--3---5---5---3--5--2----7-7-7--3---5--------| 
E|---3-----------3----0----5-5-5----------3------3--0----5-5-5---------------|
  Pm.................................................................

Pre Chorus
e|---------------------------------------------------------------------------|
B|---------------------------------------------------------------------------|
G|-----------5--7------------------------------------------------------------|
D|-5-5----2--5--7------------------------------------------------------------|
A|-5-5----2--3--5------------------------------------------------------------|
E|-3-2----0------------------------------------------------------------------|
Chorus
e|---------------------------------------------------------------------------|
B|---------------------------------------------------------------------------|
G|-----------7--------9------5-----------------------------------------------|
D|--5--------7--------9------5-----------------------------------------------|
A|--5--------5--------7------3-----------------------------------------------|
E|--3------------------------------------------------------------------------|

Bridge "Thats the way to go"
e|---------------------------------------------------------------------------|
B|---------------------------------------------------------------------------|
G|-------------------9-------------------------------------------------------|
D|---5---5-----2-----9-------------------------------------------------------|
A|---5---5-----2-----7-------------------------------------------------------|
E|---3---2-----0-------------------------------------------------------------|



Idiots are Taking Over

Intro 
e|---------------------------------------------------------------------------| 
B|---------------------------------------------------------------------------| 
G|---------------------------------------------------------------------------| 
D|--7-7-7-7---7-7-7-7----7-7-7-7---7-7-7-7-----------------------------------| 
A|--7-7-7-7---7-7-7-7----7-7-7-7---7-7-7-7-----------------------------------| 
E|--5-5-5-5---5-5-5-5----5-5-5-5---5-5-5-5-----------------------------------| 
  Pm......................................
Verse
e|---------------------------------------------------------------------------| 
B|---------------------------------------------------------------------------| 
G|-11-------7--------------9------7-----4------------------------------------| 
D|-11-------7------7-------9------7-----4--------7---------------------------| 
A|--9-------5------7-------6------5-----2--------7---------------------------| 
E|-----------------5-----------------------------5---------------------------| 
Chorus
e|---------------------------------------------------------------------------| 
B|------------------------6--------------------------------------------------| 
G|----------------7-------7--------------------------------------------------| 
D|-7-------4------7-------7--------------------------------------------------| 
A|-7-------4------5-------5--------------------------------------------------| 
E|-5-------2-----------------------------------------------------------------| 
Bridge
e|---------------------------------------------------------------------------| 
B|-10-10-14-14-15-15-10--10-15-15-10-10-10-7-7-7-10-10-----------------------| 
G|-9--9--14-14-14-14-9---9--14-14-9--9--9--6-6-6--9-9------------------------| 
D|---------------------------------------------------------------------------| 
A|---------------------------------------------------------------------------| 
E|---------------------------------------------------------------------------| 

Outro
e|---------------------------------------------------------------------------| 
B|---------------------------------------------------------------------------| 
G|-14/12-14/12-14-12-14-12-14-12---------------------------------------------| 
D|--x/-x--x/x--x--x--x--x--x--x----x4----------------------------------------| 
A|-12/10-12/10-12-10-12-10-12-10---------------------------------------------| 
E|---------------------------------------------------------------------------| 

She's Nubs 

Intro
e|-2---2---2------2---2---2--------------------------------------------------|
B|-3-2-3-2-3-2----3-2-3-2-3-2------------------------------------------------|
G|-2-2-2-2-2-2-1--2-2-2-2-2-2--7-9-------------------------------------------|
D|---2---2---2-2----2---2---2--7-9--7-----7-7-7-7-7-7-7-7-7-7----------------|
A|-------------2---------------5-7--7-----7-7-7-7-7-7-7-7-7-7----------------|
E|----------------------------------5-----5-5-5-5-5-5-5-5-5-5----------------|
                                        Pm.....   ......  ...
Verse
e|---------------------------------------------------------------------------|
B|---------------------------------------------------------------------------|
G|-7-7-7-7---------7-7-7-7----------7-7-7-7-----------9-9-9-9----------------|
D|-7-7-7-7-7-7-7-7-7-7-7-7--7-7-7-7-7-7-7-7--7-7-7-7--9-9-9-9----------------|
A|-5-5-5-5-7-7-7-7-5-5-5-5--7-7-7-7-5-5-5-5--7-7-7-7--7-7-7-7----------------|
E|---------5-5-5-5----------5-5-5-5----------5-5-5-5-------------------------|
Pm............................................................
e|---------------------------------------------------------------------------|
B|---------------------------------------------------------------------------|
G|-7-7-7-7-----------7-7-7-7---------7-7-7-7-9-9-9-9-------------------------|
D|-7-7-7-7--7-7-7--7-7-7-7-7-7-7-7-7-7-7-7-7-9-9-9-9---7-7-7-7---------------|
A|-5-5-5-5--7-7-7--7-5-5-5-5-7-7-7-7-5-5-5-5-7-7-7-7---7-7-7-7---------------|
E|----------5-5-5--5---------5-5-5-5-------------------5-5-5-5---------------|
Pm............................................................

Pre Chorus
(Guitar 1)
e|---------------------------------------------------------------------------|
B|---------------------------------------------------------------------------|
G|-7-7-7-7---------7-7-7-7----------7-7-7-7-----------9-9-9-9----------------|
D|-7-7-7-7-7-7-7-7-7-7-7-7--7-7-7-7-7-7-7-7--7-7-7-7--9-9-9-9----------------|
A|-5-5-5-5-7-7-7-7-5-5-5-5--7-7-7-7-5-5-5-5--7-7-7-7--7-7-7-7----------------|
E|---------5-5-5-5----------5-5-5-5----------5-5-5-5-------------------------|
(Guitar 2)
e|---------------------------5----5----5-------------------------------------|
B|-5-5-5-5-2----5-5-5-5^--------5---5-----5--2-------5^-5^-5^/2--------------|
G|-----------2------------2-----------------------2--------------------------|
D|---------------------------------------------------------------------------|
A|----------------------------------------------------------------12-12-12---|
E|---------------------------------------------------------------------------|

e|---------------------------------------------------------------------------|
B|---------------------------------------------------------------------------|
G|---------------------------------------------------------------------------|
D|---------------------------------------------------------------------------|
A|-9-7----12-12-12-9-16-14--12-12-12-9-7-------------------------------------|
E|-----10---------------------------------10-5-------------------------------|

Chorus
e|---------------------------------------------------------------------------|
B|---------------------------------------------------------------------------|
G|---------7-7-7-7------------9-9-9-9-----------7-7-7-7---7-7-7-9-9-9--------|
D|-4-4-4-4-7-7-7-7--7-7--7-7--9-9-9-9-4-4-4-4---7-7-7-7---7-7-7-9-9-9-7-7-7--|
A|-4-4-4-4-5-5-5-5--7-7--7-7--7-7-7-7-4-4-4-4---5-5-5-5---5-5-5-7-7-7-7-7-7--|
E|-2-2-2-2----------5-5--5-5----------2-2-2-2-------------------------5-5-5--|


Mattersville 

Intro
e|-7---7---7---7--7----------------------------------------------------------|
B|-8---8---8---8--8----------------------------------------------------------|
G|-9---9---9---9--9----------------------------------------------------------|
D|-9---9---9---9--9----------------------------------------------------------|
A|---------------------------------------------------------------------------|
E|---------------------------------------------------------------------------|
 
Verse
e|-------------------7-------------------------------7-----------------------| 
B|---8--10---7---8---8--10---8---7---8--10---7---8---8--10---8---8-----------| 
G|---7--9----7---7---9--9----9---7---7--9----7---7---9--9----9---7-----------| 
D|---9--10---7---9------10--10---7---9--10---7---9------11--10---9-----------| 
A|---------------------------------------------------------------------------| 
E|---------------------------------------------------------------------------|
   Pm............................................................. 
Chorus
e|---------------------------------------------------------------------------| 
B|---------------------------------------------------------------------------| 
G|---9------5--------8----9----5--------8----5-------7--------5----7---------| 
D|---9------5---5----8----9----5----5---8----5---5---7----2---5----7---------| 
A|---7------3---5----6----7----3----5---6----3---5---5----2---3----5---------| 
E|--------------3-------------------3------------3--------0------------------| 

Guitar 2 in Second Chorus
e|---------------------13-13-13----------------------------------------------| 
B|--12--11--10----11-13------------------------------------------------------| 
G|------------12^----------------11-3-5^-------------------------------------| 
D|---------------------------------------------------------------------------| 
A|---------------------------------------------------------------------------| 
E|---------------------------------------------------------------------------| 

Bridge
e|---3---0---2---3---3---5---3---2---3---| 
B|---3---1---3---3---5---5---5---3---3---| 
G|---4---0---2---4---4---6---5---2---4---| 
D|---5---2-----------5---7---5-------5---| 
A|---5-------------------------------5---| 
E|---------------------------------------| 

Decom-posuer 

Intro 
e|---------------------------------------------------------------------------|
B|---------------------------------------------------------------------------|
G|-----------------------------------------------------12-11-10--------------|
D|-7-7-7-10-10-10-12-12-12-7-7-7-10-10-10-12-12-12-x2--x--x--x---------------|
A|-0-0-0-0--0--0--0--0--0--0-0-0-0--0--0--0--0--0------10-9--8---------------|
E|---------------------------------------------------------------------------|

e|---------------------------------------------------------------------------|
B|---------------------------------------------------------------------------|
G|----------------------------12-11-10---------------------------------------|
D|-7-9-7-10-7-9-7-9-7-10-7-9--x--x--x----------------------------------------|
A|-0-0-0-0--0-0-0-0-0-0--0-0--10-9--8----------------------------------------|
E|---------------------------------------------------------------------------|

Verse
e|---------------------------------------------------------------------------| 
B|---------------------------------------------------------------------------| 
G|--------10---------10----5-----5---5-7--5-7--5-7--5-7--5------5-5--7-------| 
D|--7-----10---7-----10----5-----5---x-x--x-x--x-x--x-x--5--8-3-5-5--7--3----| 
A|--7-----8----7-----8-----3-----2---3-5--3-5--3-5--3-5--3--8-3-3-3--5--3----| 
E|--5----------5--------------------------------------------6-1---------1----| 

Solo 
e|-----16b17--16b17--16b17--16b17--15----------------------------------------| 
B|------------------------------------17-15----17-15-------------------------| 
G|------------------------------------------17-------17-14-------------------| 
D|---------------------------------------------------------------------------| 
A|---------------------------------------------------------------------------| 
E|---------------------------------------------------------------------------|

e|-----12-13-14b15--14b15-13-------------------------------------------------| 
B|---------------------------13----13-15-13----------------------------------| 
G|------------------------------14----------14-12----------------------------| 
D|------------------------------------------------10-------------------------| 
A|---------------------------------------------------------------------------| 
E|---------------------------------------------------------------------------| 

e|---------------------------------------------------------------------------| 
B|-15-13-15-13-15-13-15-15-13------------------------------------------------| 
G|---------------------------12-10-12-10-12-10-12-12-10----------------------| 
D|-----------------------------------------------------12-10-12-10-12-12-10--| 
A|---------------------------------------------------------------------------| 
E|---------------------------------------------------------------------------| 

Medio-core 

Intro
e|--------------------------3-------------------3---------------------------| 
B|-------3-------3----3---2------------2---2---1-------------1-1/3----------| 
G|---0-------0------0------------0--0--------------0--0---------------------| 
D|--------------------------------------------------------------------------| 
A|--------------------------------------------------------------------------| 
E|--------------------------------------------------------------------------| 

Verse
e|--7----8-----8----8----7-----7------8----8----8------8--------------------| 
B|--6----8-----8----8----8-----6------8----8----8------8--------------------| 
G|--7----9-----8----9----7-----7------9----9----8------8--------------------| 
D|--------------------------------------------------------------------------| 
A|--------------------------------------------------------------------------| 
E|--------------------------------------------------------------------------| 

e|--------------------------------------------------------------------------| 
B|--------------------------------------------------------------------------| 
G|--------------7------7---------------5-----5------7-----7-7-7-------------| 
D|---5------5---7------7----7----7-----5-----5------7-----7-7-7-------------| 
A|---5------5---5------5----7----7-----3-----3------5-----5-5-5-------------| 
E|---3------3---------------5----5------------------------------------------| 

e|---3---3------------------------------------------------------------------| 
B|---3---3------------------------------------------------------------------| 
G|---4---4---7---7-----------5---5---7--------------------------------------| 
D|-----------7---7---7---7---5---5---7--------------------------------------| 
A|-----------5---5---7---7---3---3---5--------------------------------------| 
E|-------------------5---5--------------------------------------------------| 

Chorus
e---7-------7-------7-------3-------------------------| 
B---8-------7-------6-------5-------------------4-----| 
G---7-------7-------7-------5----------------5--5-----| 
D--------------------------------5-5-4-3-3-2-5--5-----| 
A--------------------------------5-5-4-3-3-2-3--3-----| 
E--------------------------------3-3-2-1-1-0----------| 

Verse 2
Verse
e|--7----8-----8----8----7-----7------8----8----8------8--------------------| 
B|--6----8-----8----8----8-----6------8----8----8------8--------------------| 
G|--7----9-----8----9----7-----7------9----9----8------8-----8-----10-------| 
D|--------------------------------------------------------5--8--8--10-------| 
A|--------------------------------------------------------5--6--8--8--------| 
E|--------------------------------------------------------3-----6-----------|

Pre Chorus
e|---------------------------------------------------------------------------|
B|---------------------------------------------------------------------------|
G|---------------------------7-7-7-7-7-7-7-7-7-------------------------------|
D|---5-5-5-5-4-4-3-2-2-2-2-2-7-7-7-7-7-7-7-7-7---7-7-7-7-7-7-----------------|
A|---5-5-5-5-4-4-3-2-2-2-2-2-5-5-5-5-3-3-3-3-3---7-7-7-7-7-7-----------------|
E|---3-3-3-3-2-2-1-0-0-0-0-0---------------------5-5-5-5-5-5-----------------|

Chorus 2
e|-------------------------------------------------------------------|
B|---------------------------------------8---------------------------| 
G|---------------9-----------------------8---------------------------| 
D|---5-----------9----------10-----------10--------------------------| 
A|---5-----------7----------10-----------10--------------------------| 
E|---3----------------------8------------8---------------------------| 
(Guitar 1)
e|-------------------------------------------------------------------|
B|---------------------------------------------------4---------------| 
G|-------------------9-------9-------5-------5-------5---------------| 
D|---5-------5-------9-------9-------5-------5-------5---------------|
A|---5-------5-------7-------7-------3-------3-------3---------------|
E|---3-------3-------------------------------------------------------| 
(Guitar 2)
e|-------------------------------------------------------------------| 
B|-------------------------------------------------------------------| 
G|--16---16--14--12--16---16--14--12--17----16--14--12-----12--------| 
D|--x----x---x---x---x----x---x---x---x-----x---x---x------x---------| 
A|--14---14--12--10--14---14--12--10--15----14--12--10-----10--------|
E|-------------------------------------------------------------------|

e|-------------------------------------------------------------------| 
B|---------------------------------------------------4-------4-------| 
G|----------12-------9-------9-------5-------5-------5-------5---7---| 
D|---5------12-------9-------9-------5-------5-------5-------5---7---| 
A|---5------10-------7-------7-------3-------3-------3-------3---5---| 
E|---5---------------------------------------------------------------|

Outro
e|--7----8-----8----8----7-----7------8----8----8------8--------------------| 
B|--6----8-----8----8----8-----6------8----8----8------8--------------------| 
G|--7----9-----8----9----7-----7------9----9----8------8---------7----------| 
D|-----------------------------------------------------------5---7--5-------| 
A|-----------------------------------------------------------5---5--5-------| 
E|-----------------------------------------------------------3------3-------| 

Anarchy Camp 

Intro
e|-6-6-8-10-8-6-----6-8-10-8-6------6-8-10-8-6-8^-6--------------------------|
B|---------------8---------------8------------------6------------------------|
G|---------------------------------------------------------------------------|
D|---------------------------------------------------------------------------|
A|---------------------------------------------------------------------------|
E|---------------------------------------------------------------------------|
Verse
e|--6-----3---6--------------------------------------------------------------|
B|--6-----3---7--------------------------------------------------------------|
G|--7-----4---8--------------------------------------------------------------|
D|---------------------------------------------------------------------------|
A|---------------------------------------------------------------------------|
E|---------------------------------------------------------------------------|

(Guitar 1)
e|--6-5---6-5----3--5--------------------------------------------------------|
B|--6-6---6-6----4--6--------------------------------------------------------|
G|--7-7---7-7----5--7--------------------------------------------------------|
D|---------------------------------------------------------------------------|
A|---------------------------------------------------------------------------|
E|---------------------------------------------------------------------------|
(Guitar 2)
e|---------------------------------------------------------------------------|
B|---6-4-3-3--6-4-3-3--------------6-6-6-4-3---------------------------------|
G|------------------------8-7-8-10------------3------------------------------|
D|-3---------3--------3------------------------------------------------------|
A|---------------------------------------------------------------------------|
E|---------------------------------------------------------------------------|

Solo 3
e|----------------------------------------------13-11-10-6-6----------------|
B|---6-4-3-3--6-4-3-3--------------8-6-8-6-8-11-----------------------------|
G|------------------------8-7-8-10------------------------------------------|
D|-3---------3--------3-----------------------------------------------------|
A|--------------------------------------------------------------------------|
E|--------------------------------------------------------------------------|

During Verse 3
e|-6-8-10-8-6----6-8-10-8-6---6-8-10-8-6-8-----------------------------------|
B|-------------8------------8------------------------------------------------|
G|---------------------------------------------------------------------------|
D|---------------------------------------------------------------------------|
A|---------------------------------------------------------------------------|
E|---------------------------------------------------------------------------|

e|-5/6-6/8-----18^-21^-------------------------------------------------------|
B|---------------------------------------------------------------------------|
G|---------------------------------------------------------------------------|
D|---------------------------------------------------------------------------|
A|---------------------------------------------------------------------------|
E|---------------------------------------------------------------------------|

American Errorist (I Hate Hate Haters) 

Intro
(Guitar 1)
e|---------------------------------------------------------------------------|
B|---------------------------------------------------------------------------|
G|---9--9-9-9-9-9-9-9--9--9-9-9-9-9-9-9-9--9---------------------------------|
D|---9--9-9-9-9-9-9-9--9--9-9-9-9-9-9-9-9--9---------------------------------|
A|---7--7-7-7-7-7-7-7--7--7-7-7-7-7-7-7-7--7---------------------------------|
E|---------------------------------------------------------------------------|
   Pm   .............     ...............
(Guitar 2)
e|---------------------------------------------------------------------------|
B|---------------------------------------------------------------------------|
G|---------------------------------------------------------------------------|
D|---------------------------------------------------------------------------|
A|--10--7-5-5-5-5--7--10--7-5-5-5-5--7-10--7-5-5-5-5--7---5--7-5--7-5---7----|
E|---------------------------------------------------------------------------|

Verse
e|---------------------------------------------------------------------------|
B|---------------------------------------------------------------------------|
G|--9---------5---------9--------5-------------------------------------------|
D|--9---------5---------9--------5-------------------------------------------|
A|--7---------3---------7--------3-------------------------------------------|
E|---------------------------------------------------------------------------|

Chorus
e|---------------------------------------------------------------------------|
B|---------------------------------------------------------------------------|
G|--------------------------5------------------------------------------------|
D|--5------5-------2--------5------------------------------------------------|
A|--5------5-------2--------3------------------------------------------------|
E|--3------2-------0---------------------------------------------------------|

Solo
e|-5-5-5--3-5-5/7/5-3--5-5-3-5-7--------5-5-5-3-5/7/5-3----------------------|
B|-------------------------------------------------------5-3-5---------------|
G|---------------------------------x2--------------------------3-5--------7--|
D|------------------------------------------------------------------7---7----|
A|--------------------------------------------------------------------5------|
E|--------------------------------------------------------------------------7|

We Got Two Jealous Agains 


Intro: 
e|-------------------------------------------------------------| 
B|-------------------------------------------------------------| 
G|-------------------------------------------------------------| 
D|-7---7---7---7---7---7---7---7-------------------------------| 
A|-7---7---7---7---7---7---7---7-------------------------------| 
E|-5---5---5---5---5---5---5---5-------------------------------| 

Verse 1
e|-------------------------------------------------------------| 
B|-------------------------------------------------------------| 
G|----------------------------7-------5------------------------| 
D|-7-7-7-7-7-7--3-3-3-3--5----7--5--7-5--7---------------------| 
A|-7-7-7-7-7-7--3-3-3-3--5----5--5--7-3--7---------------------| 
E|-5-5-5-5-5-5--1-1-1-1--3-------3--5----5---------------------| 
 
e|---------------------------------------------------------------------------| 
B|---------------------------------------------------------------------------| 
G|----------10--10--10--10---------------------------------------------------| 
D|-7-7-7-7--10--10--10--10---5--5--5--5--7-7-7-7-7---------------------------| 
A|-7-7-7-7--8---8---8---8----5--5--5--5--7-7-7-7-7---------------------------| 
E|-5-5-5-5-------------------3--3--3--3--5-5-5-5-5---------------------------|
Pre Chorus
e|---------------------------------------------------------------------------| 
B|---------------------------------------------------------------------------| 
G|----------5-5-5-5----------------------------------------------------------| 
D|-3-3-3-3--5-5-5-5--3-3-3-3--5-5-5-5----------------------------------------| 
A|-3-3-3-3--3-3-3-3--3-3-3-3--5-5-5-5----------------------------------------| 
E|-1-1-1-1-----------1-1-1-1--3-3-3-3----------------------------------------|
Chorus
e|---------------------------------------------------------------------------| 
B|---------------------------------------------------------------------------| 
G|-5-5-5-5-5---5-5-5-5-5---5-5-5-5-5-------5---------------------------------| 
D|-5-5-5-5-5-6-5-5-5-5-5-5-5-5-5-5-5-6-3-5-5---x2----------------------------| 
A|-3-3-3-3-3-6-3-3-3-3-3-5-3-3-3-3-3-6-3-5-3---------------------------------| 
E|-----------4-----------3-----------4-1-3-----------------------------------| 

Verse 2
e|---------------------------------------------------------------------------| 
B|---------------------------------------------------------------------------| 
G|-5-5-5-5---------2-4-5-7-5-4---------5-5-5-5-------------------------------| 
D|-5-5-5-5-5-5-5-5-------------3-3-3-3-5-5-5-5-3-3-3-3-5-5-5-5---------------| 
A|-3-3-3-3-5-5-5-5-------------3-3-3-3-3-3-3-3-3-3-3-3-5-5-5-5---------------| 
E|---------3-3-3-3-------------1-1-1-1---------1-1-1-1-3-3-3-3---------------| 

Verse 2 (pt 2): 
e|--------------------------------------------------------------------------| 
B|--------------------------------------------------------------------------| 
G|-5-5-5-------------9-9-9-------5-5-5-----------------12-12-12-12----------| 
D|-5-5-5-5-5-5-7-7-7-9-9-9-3-3-3-5-5-5-3-3-3-5-5-5-5-5-x--x--x--x-----------| 
A|-3-3-3-5-5-5-7-7-7-7-7-7-3-3-3-3-3-3-3-3-3-5-5-5-5-5-10-10-10-10----------| 
E|-------3-3-3-5-5-5-------1-1-1-------1-1-1-3-3-3-3-3----------------------| 

Bridge 
e|---------------------------------------------------------------------------| 
B|---------------------------------------------------------------------------| 
G|-----------5---------------------------------------------------------------| 
D|-7----3----5----5----7----3----5-------------------------------------------| 
A|-7----3----3----5----7----3----5-------------------------------------------| 
E|-5----1---------3----5----1----3-------------------------------------------| 

13 Stitches 

e|---------------------------------------------------------------------------|
B|---------------------------------------------------------------------------|
G|------------------5-5-5-5------------------------5-5-5-5-------------------|
D|-5-5-5-5-7-7-7-7--5-5-5-5-5-5-5--5-5-5-5-7-7-7-7-5-5-5-5-5-5-5-5-----------|
A|-5-5-5-5-7-7-7-7--3-3-3-3-5-5-5--5-5-5-5-7-7-7-7-3-3-3-3-5-5-5-5-----------|
E|-3-3-3-3-5-5-5-5----------3-3-3--3-3-3-3-5-5-5-5---------3-3-3-3-----------|

e|---------------------------------------------------------------------------|
B|---------------------------------------------------------------------------|
G|-7-7-7-7---------5-5-5-5------------7-7--7-7------------5--5--5-7-7-7------|
D|-7-7-7-7-2-2-2-2-5-5-5-5--5--5-5-5--7-7--7-7--2--2-2-2--5--5--5-7-7-7------|
A|-5-5-5-5-2-2-2-2-3-3-3-3--5--5-5-5--5-5--5-5--2--2-2-2--3--3--3-5-5-5------|
E|---------0-0-0-0----------3--3-3-3------------0--0-0-0---------------------|

Solo
e|-2-2-2-0-2-3-0-12-12-12-------10-7-7--2-2-2-0-2-3-0-7/8-8-8-7-7-8-7-7-5-5--|
B|------------------------10/13----------------------------------------------|
G|---------------------------------------------------------------------------|
D|---------------------------------------------------------------------------|
A|---------------------------------------------------------------------------|
E|---------------------------------------------------------------------------|


Re-gaining Unconciousness 

Intro

e|----------------------x-x-x------------------------------------------------|
B|----------------------x-x-x------------------------------------------------|
G|------------12-12--7--x-x-x------x4----------------------------------------|
D|--7-7--7-7--X--x---7--x-x-x------------------------------------------------|
A|--7-7--7-7--10-10--5--x-x-x------------------------------------------------|
E|--5-5--5-5------------x-x-x------------------------------------------------|


Verse
e|---------------------------------------------------------------------------|
B|---------------------------------------------------------------------------|
G|----9--7---------9--7-----------9-------7-----------4---7------------------|
D|-7--9--7---7--7--9--7----7---7--9---9---7-----7--7--4---7------------------|
A|-7--7--5---7--7--7--5----7---7--7---9---5-----7--7--2---5------------------|
E|-5---------5--5----------5---5------7---------5--4-------------------------|

Bridge
e|---------------------------------------------------------------------------|
B|---------------------------------------------------------------------------|
G|---------------------------------------------------------------------------|
D|--7---7---5---5---7--7----5--5---------------------------------------------|
A|--7---7---5---5---7--7----5--5---------------------------------------------|
E|--5---4---3---2---5--4----3--2---------------------------------------------|

Outro
e|---------------------------------------------------------------------------|
B|---------------------------------------------------------------------------|
G|---9-4-7----9-4-7------------7-----------7---------9---7/10----------------|
D|-7-9-4-7--7-9-4-7---7--7--4--7--7--7--4--7---7--7--9---7/10-----------------|
A|-7-7-2-5--7-7-2-5---7--7--4--5--7--7--4--5---7--7--7---5/8-----------------|
E|-5--------5---------5--4--2-----5--4--2------5--4--------------------------|

e|---------------------------------------------------------------------------|
B|---------------------------------------------------------------------------|
G|----------7/10-----------7/10--------------7---10--------------------------|
D|-7--7--4--7/10--7--7--4--7/10---7---7--4---7---10---7----------------------|
A|-7--7--4--5/8---7--7--4--5/8----7---7--4---5---8----7----------------------|
E|-5--4--2--------5--4--2---------5---4--2------------5----------------------|

Whoops, I OD'd 

Intro
e|---------------------------------------------------------------------------|
B|---------------------------------------------------------------------------|
G|-4-4-4-4-4----5-5-5-5-5----7-7-7-7-7-7-7-----------------------------------|
D|-5-5-5-5-5----5-5-5-5-5----5-5-5-5-5-5-5----5-5-5-5---7-7-7-7---9-9-9-9----|
A|--------------------------------------------7-7-7-7---7-7-7-7---7-7-7-7----|
E|---------------------------------------------------------------------------|

e|---------------------------------------------------------------------------|
B|---------------------------------------------------------------------------|
G|-5-5-5-5-5-5---4-4---2-2-2-2-----------------------------------------------|
D|-7-7-7-7-7-7---5-5---4-4-4-4-----5-----------------------------------------|
A|-0-0-0-0-0-0---0-0---0-0-0-0-----3-----------------------------------------|
E|---------------------------------------------------------------------------|

Verse
e|----------------------------------------------------------------------------|
B|----------------------------------------------------------------------------|
G|--4-4-4-4-4----5-5-5-5-5----7-7-7-7-7-7-7-----------------------------------|
D|--5-5-5-5-5----5-5-5-5-5----5-5-5-5-5-5-5----5-5-5-5---7-7-7-7---9-9-9-9----|
A|---------------------------------------------7-7-7-7---7-7-7-7---7-7-7-7----|
E|----------------------------------------------------------------------------|

e|----------------------------------------------------------------------------|
B|----------------------------------------------------------------------------|
G|--5-5-5-5-5-5---4-4---2-2-2-2-----------------------------------------------|
D|--7-7-7-7-7-7---5-5---4-4-4-4-----5-5-5-5-----------------------------------|
A|--0-0-0-0-0-0---0-0---0-0-0-0-----3-3-3-3-----------------------------------|
E|----------------------------------------------------------------------------|

e|----------------------------------------------------------------------------|
B|----------------------------------------------------------------------------|
G|---------5-5-5---------------------5-5-5---7-7-7-7-7-7-7--------------------|
D|-5-5-5---5-5-5---5-5-5-5-5-5-5-5---5-5-5---5-5-5-5-5-5-5--------------------|
A|-5-5-5-----------5-5-5-5-5-5-5-5--------------------------------------------|
E|-3-3-3-----------3-3-3-3-3-3-3-3--------------------------------------------|

e|----------------------------------------------------------------------------|
B|----------------------------------------------------------------------------|
G|---------------------------------------5-5-5-5---4-4--2-2-2-----------------|
D|-5-5-5-5-5-5-7-7-7-7-7-7-9-9-9-9-9-9---7-7-7-7---5-5--4-4-4----5-5-5-5-5----|
A|-7-7-7-7-7-7-7-7-7-7-7-7-7-7-7-7-7-7---0-0-0-0---0-0--0-0-0----3-3-3-3-3----|
E|----------------------------------------------------------------------------|

e|----------------------------------------------------------------------------|
B|----------------------------------------------------------------------------|
G|----------5-5-5----------------------------5-5-5-5-5-5----------------------|
D|--5-5-5-5-5-5-5-5-5-5-5-5----7-7-7-7-7-----5-5-5-5-5-5---5-5-5-5----2-2-2-2-|
A|--5-5-5-5-------5-5-5-5-5----7-7-7-7-7-----3-3-3-3-3-3---5-5-5-5----2-2-2-2-|
E|--3-3-3-3-------3-3-3-3-3----5-5-5-5-5-------------------3-3-3-3----0-0-0-0-|

e|----------------------------------------------------------------------------|
B|----------------------------------------------------------------------------|
G|-------------5-5-5-5-5-----4---4---4---4---3--------------------------------|
D|--7-7-7-7-7--5-5-5-5-5-----5---3---2---1---5--------------------------------|
A|--7-7-7-7-7--3-3-3-3-3------------------------------------------------------|
E|--5-5-5-5-5-----------------------------------------------------------------|

e|----------------------------------------------------------------------------|
B|----------------------------------------------------------------------------|
G|-----------5-5-5-5---7-7-7-7-7----------------------------------------------|
D|--5-5-5-5--5-5-5-5---5-5-5-5-5----5-5-5-5-5---7-7-7-7-7---9-9-9-9-----------|
A|--5-5-5-5-------------------------7-7-7-7-7---7-7-7-7-7---7-7-7-7-----------|
E|--3-3-3-3-------------------------------------------------------------------|

e|----------------------------------------------------------------------------|
B|----------------------------------------------------------------------------|
G|-5-5-5-5-5-5---4-4---2-2-2-2------------------------------------------------|
D|-7-7-7-7-7-7---5-5---4-4-4-4-----5-5-5-5------------------------------------|
A|-0-0-0-0-0-0---0-0---0-0-0-0-----3-3-3-3------------------------------------|
E|----------------------------------------------------------------------------|

e|----------------------------------------------------------------------------|
B|----------------------------------------------------------------------------|
G|----------5-5-5------------------------------5-5-5-5-5-5--------------------|
D|-5-5-5-5--5-5-5---5-5-5-5-5----7-7-7-7-7-----5-5-5-5-5-5---5-5-5-5--2-2-2-2-|
A|-5-5-5-5----------5-5-5-5-5----7-7-7-7-7-----3-3-3-3-3-3---5-5-5-5--2-2-2-2-|
E|-3-3-3-3----------3-3-3-3-3----5-5-5-5-5-------------------3-3-3-3--0-0-0-0-|

e|----------------------------------------------------------------------------|
B|----------------------------------------------------------------------------|
G|--------------5-5-5-5-5-----4---4---4---4---3-------------------------------|
D|-7-7-7-7-7----5-5-5-5-5-----5---3---2---1---5-------------------------------|
A|-7-7-7-7-7----3-3-3-3-3-----------------------------------------------------|
E|-5-5-5-5-5------------------------------------------------------------------|

e|----------------------------------------------------------------------------|
B|----------------------------------------------------------------------------|
G|-----------5-5-5-5---7-7-7-7-7----------------------------------------------|
D|-5-5-5-5---5-5-5-5---5-5-5-5-5----5-5-5-5-5---7-7-7-7-7---9-9-9-9-----------|
A|-5-5-5-5--------------------------7-7-7-7-7---7-7-7-7-7---7-7-7-7-----------|
E|-3-3-3-3--------------------------------------------------------------------|

e|----------------------------------------------------------------------------|
B|----------------------------------------------------------------------------|
G|-5-5-5-5-5-5---4-4---2-2-2-2------------------------------------------------|
D|-7-7-7-7-7-7---5-5---4-4-4-4-----5------------------------------------------|
A|-0-0-0-0-0-0---0-0---0-0-0-0-----3------------------------------------------|
E|----------------------------------------------------------------------------|

e|----------------------------------------------------------------------------|
B|----------------------------------------------------------------------------|
G|------------5-5-5-5---7-7-7-7-7---------------------------------------------|
D|--5-5-5-5---5-5-5-5---5-5-5-5-5----5-5-5-5-5---7-7-7-7-7---9-9-9-9----------|
A|--5-5-5-5--------------------------7-7-7-7-7---7-7-7-7-7---7-7-7-7----------|
E|--3-3-3-3-------------------------------------------------------------------|

e|----------------------------------------------------------------------------|
B|----------------------------------------------------------------------------|
G|-5-5-5-5-5-5---4-4---2-2-2-2------------------------------------------------|
D|-7-7-7-7-7-7---5-5---4-4-4-4-----5-5-5-5-5----------------------------------|
A|-0-0-0-0-0-0---0-0---0-0-0-0-----3-3-3-3-3----------------------------------|
E|----------------------------------------------------------------------------|

e|----------------------------------------------------------------------------|
B|----------------------------------------------------------------------------|
G|----------5-5-5----------------------------5-5-5-5-5-5----------------------|
D|-5-5-5-5--5-5-5---5-5-5-5-5----7-7-7-7-7---5-5-5-5-5-5-4--4--4--4--3-3-3-3--|
A|-5-5-5-5----------5-5-5-5-5----7-7-7-7-7---3-3-3-3-3-3-5--3--2--1--5-5-5-5--|
E|-3-3-3-3----------3-3-3-3-3----5-5-5-5-5------------------------------------|

e|----------------------------------------------------------------------------|
B|--------------------------------------6-6-6---------------4-----------------|
G|--------------5-5-5-5----4-4-4-4------7-7-7----5-5-5-5----5-----------------|
D|--7-7-7-7-7---5-5-5-5----5-5-5-5------7-7-7----5-5-5-5----5-----------------|
A|--7-7-7-7-7---3-3-3-3----5-5-5-5------5-5-5----3-3-3-3----------------------|
E|--5-5-5-5-5--------------3-3-3-3--------------------------------------------|
Добавлено: 06.05.2012
Другие материалы по этой песне:
  • Аккорды и текст

Страница создана 06.05.2012
http://primanota.ru/nofx/the-war-on-errorism-album-chords.htm
Привет, Гость.
Предлагаем пройти революционный курс по гитаре.
Подарок от PrimaNota.Ru, забирай!