PrimaNota.ru - самый крупный в мире бесплатный архив песенных текстов, аккордов, табулатур и нот


Nofx - The Longest Line (album) - таба, видео

Регистрация Запомнить меня
Войти через:  Facebook Google Twitter Vk Yandex Mail.ru

Nofx - The Longest Line (album) - таба, видео

Печатать
Просмотров: 83
Artist:NoFX
Album:The Longest Line
year:1992
Tabbed By:NoFX_2525

1)The Death Of John Smith
2)The Longest Line
3)Stranded
4)Remains
5)Kill All The White Man
-------------------------------------------------------------------------------|
-------------------------------------------------------------------------------|
1) The Death Of John Smith:
# start #
G--|-------/---------/--|14-1417141719-19141414|
D--|--7-7-71010---7-712-|----------------------|
A--|0-------------------|----------------------|
E--|--------|3X|--------|----------------------|
# intro # *=play 5X
G--|---------/-------/-----|14*--------1714-14--*--------19-------|
D--|------7-71010---7121212|------------------17-----------17-----|
A--|0---0------------------|--------------------------------------|
E--|---------|14X|---------|--------------------------------------|
:
# into-main #
G---------------------------------------------------|
D---------------------------------------------------|
A-------------------------------------------33-323-3|
E---5050505050505050505050505050505050505050--------|
:
# main #
G---------------------------------4-----------------%%------%%------>
D-----------55555-----------5--5------------55555---%%------%%------>
A---0-0---0-------3-0-0---0---------0-0---0-------3-%%------%%------>
E---------------------------------------------------%%1--1--%%3--3-->
>main                                                               >
>-----------------------------------%%--------------%%------%%------>
>-----------55555-------------------%%------55555---%%------%%------>
>---0-0---0-------3-0-0---0---------%%0---0-------3-%%------%%------>
>---------------------------33-3-34-%%--------------%%1--1--%%3--3-->
>main                                                               >
>---------------------------------4-----------------%%------%%------>
>-----------55555-----------5--5------------55555---%%------%%------>
>---0-0---0-------3-0-0---0---------0-0---0-------3-%%------%%------>
>---------------------------------------------------%%1--1--%%3--3-->
>main
>---%%------%%------%%------%%------|
>---%%3--3--%%5--5--%%------%%------|
>---%%------%%------%%------%%------|
>---%%------%%------%%1--1--%%3--3--|
:
# verse # X4 *=play 6X #=play 3X %=pause
G-------------%%%%%%----------%%%%%---------------------------------|
D-------------%%%%%%----------%%%%%--*---------------#--------------|
A---0-0---0-0-%%%%%%0-0---0-0-%%%%%/8---------------3--------#------|
E-------------%%%%%%----------%%%%%-------------------------3-------|
:
# chorus # *=play 6X #=play 3X (So I keep on working...)
G------------------------------------*-------*------|
D----*-------#-------*-------#---#--3-------5-------|
A---8-------3----#--8-------2---3-------------------|
E---------------3-----------------------------------|
:
# TILT # !õ=10! %=pause h=hammer-on p=pull-off *=play 5-8X-----------|          >
G---------%%-p-5--5----%%%%%-*---------------p-5-----p-------p-------|
D---7---\%%75h--------%%%%%7--------------75h---5-75h5--5-75h--------|
A---------%%--7-----0--%%%%%--------0-0-0-0---7-------7-------73--5--|
E---------%%-----------%%%%%-----------------------------------------|
>TILT                                                               >
>------%%%%%-----------%%%%%-*---------------p-5-----p-------p-------|
>------%%%%%-----------%%%%%7--------------75h---5-75h5--5-75h-------|
>------%%%%%-----------%%%%%--------0-0-0-0---7-------7-------73--5--|
>---5-%%%%%5303--4-5-%%%%%-------------------------------------------|
>TILTB
>-------------------------------%%%%----------|
>------7õ----------5--7--5-7-7-%%%%-----------|
>---88------5--6--7-------------%%%%----------| > Then play first row of main.
>-------------------------------%%%%33-3-34---|   >>>>>>>>>to next page...
THE DEATH OF JOHN SMITH                                                   2/2
:
# verse2 # %=pause *=play 6X                                        >
G-------------%%%%%-----------%%%%%%------------------9--12----------|
D-------------%%%%%1012--14---%%%%%%-*-------------10------12--10-9--|
A--1212--1212%%%%%--------12%%%%%%8----------------------------------|
E-------------%%%%%-----------%%%%%%---------------------------------|
>verse2
>-|-----------%%%-------------%|2X|%------------------9--12----------|
>-|-----------%%%--/----------%%%%%%-*-------------10------12--10-9--|
>-|1212--1212%%%121515--1512%%%%%%8----------------------------------|
>-|-----------%%%-------------%%%%%%---------------------------------|
>verse2
>-------------%%%%------------%%%%%%------------------9--12-----------|
>-------------%%%%/1412--10---%%%%%%-*-------------10------12--10-9---|
>--1212--1212%%%%---------12%%%%%%8-----------------------------------|
>-------------%%%%------------%%%%%%----------------------------------|
:
Then play chorus.
:
# bridge # !play all notes 16X! (When the pity spins your mind...)
G---------------------------------------------------------------------------|
D---------------------------------------------------------------------------|
A-------------------5-----/12------10-------5-----/12------10-------5-------|
E---5-------3---------------------------------------------------------------|
:
# main3 # %=pause
G---------------------------------------------------------7-88-8-%%%|
D-----------55555-----------55555-----------55555-----------99-9-%%%|
A---0-0---0-------3-0-0---0-------3-0-0---0-------3/8887---------%%%|
E----------------------------------------------------------------%%%|
:
# verse3 # %=pause *=play 6X #=play 3X                              >
G------------------------------------------------------------------->
D----*---------------*---------------*---------------#-------------->
A---0---------------0--------------/8---------------3--------#------>
E-----------------------------------------------------------3------->
>verse3                                                             >
>----------------------------------------------------#-------------->
>----*---------------*---------------*-------------10--------#------>
>-/12--------------12---------------8----------------------10------->
>------------------------------------------------------------------->
>verse3                                                             >
>-----------------------------------------------------9--12----------|
>----*---------------*---------------*-------------10------12--10-9--|
>--12----------------------------/8---------------------------------|
>--------------------------------------------------------------------|
>verse3
>-------------------------------------------------------------------|
>----*---------------#-------#-------*---------------#--------------|
>--12-------------/15------12-------8---------------3--------#------|
>-----------------------------------------------------------3-------|
:
# chorus3 # *=play 6X #=play 3X
G------------------------------------*-------*----------------------|
D----*-------#-------*-------#---#--3-------3-----------------------|
A---8-------3----#--8-------2---3--------------------*-------*------|
E---------------3-----------------------------------3-------3-------|
:
Then play last two rows of main.
:
# outro #  %=pause
G------------p-5--5-%%--------|
D-----------75h-----%%--------|
A---0-0---0---7-----%%--------|
E-------------------%%5-35----|

------------------------------------------------------------------------------|
------------------------------------------------------------------------------|
2) The Longest Line:
# verse # *=play 6-8X #=play 3X                                     >
G------------------------------------------------------------------->
D----*-------------------------------*------------------------------>
A---3--------*-------*-------*------3--------*-------*-------#------>
E-----------3-------5-------5-----33--------3-------1-------1--5-3-3>
>verse
>-------------------------------------------------------------------|
>----*-------------------------------*---------------*-------#------|
>---3--------*-------*-------*------3--------*------8-------8-------|
>-----------3-------5-------5-----33--------3------------------5-3-3|
:
# bridge # *=play 8X
G-----------------------------------|
D--------------------*-------*------| > Then play verse.
A----*-------*------0-------1-------|
E---1-------3-----------------------|
:
# bridge2 # *=play 8X
G----*-------*----------------------|
D---3-------5--------*-------*------|
A-------------------0-------1-------|
E-----------------------------------|
:
# chorus # *=play 5-8X
G-------------------------------------------------------------------|
D----*-----------*---*---*---*---*---*-------------------*---*---*--|
A---3----*---*--7---8---3---5---8---3----*---*---*---*--3---5---8---|
E-------3---5---------------------------3---5---0---1---------------|
:
# verse2 # *=play 6-8X #=play 3X                                    >
G------------------------------------------------------------------->
D----*-------------------------------*------------------------------>
A---3--------*-------*-------*------3--------*-------*-------#------>
E-----------3-------5-------5-----33--------3-------1-------1--5-3-3>
>verse2
>-------------------------------------------------------------------|
>----*--------------------------------------------------------------|
>---3--------*-------*-------*-------*-------*-------*-------*------|
>-----------3-------5-------3-------1-------1-------3-------3-------|
:

-----------------------------------------------------------------------------|
-----------------------------------------------------------------------------|
3) Stranded:
# intro # X2
G-----------------------------------|
D----------------------------/------|
A---------------------------35-555-5|
E---55-553-355-553-355-553-3--------|
:
# intro2 #    *=play 5-6X     %=pause
G------------*-------------%-*----------------------|
D---44-442-45-------44-4424%5-----------------------|
A--------------------------%-----------------*------|
E--------------------------%--------22-220-23-------|
:
# verse #   *=play 6X                                               >
G------------------------------------------------------------------->
D------------*-------------------------------*---------------------->
A----*------5--------*-------*-------*------5-------765------------->
E---2---------------5-------0-------2------------------765430------->
>verse
>-------------------------------------------------------------------|
>------------*-------------------------------*----------------------|
>----*------5--------*-------*-------*------5--------*-------*------|
>---2---------------5-------0-------2---------------5-------0-------|
# verse-part2 # *=play 6X %=pause  (...me...)
G---------------------------------------------------------%%|
D---------------------------------------------------------%%|
A-----------55-544-4-*-------*--------------55-544-47-7-7-%%|
E---22-220-2--------5-------0-------22-220-2--------------%%|
:
# verse #   *=play 6X                                       >
G----------------------------------------------------------->
D------------*-------------------------------*-------------->
A----*------5--------*-------*-------*------5--------------->
E---2---------------5-------0-------2---------------0------->
>verse
>-------------------------------------------------------------------|
>------------*-------------------------------*----------------------|
>----*------5--------*-------*-------*------5-------765-------------|
>---2---------------5-------0-------2------------------765430-------|
:
# pre-chorus # *=play 12X       # chorus # X2 *=play 6X  (Stranded...)
G--|-----|3X|------|--------|   G-----------------------------------|
D--|---------------|--------|   D----*-------*-------*-------*------|
A--|---------------|-*------|   A---5-------4-------4-------4-------|
E--|2-2--222-2---00|2-------|   E-----------------------------------|
:
# bridge #  #=play 3X   *=play 8X   %=pause
G--------------------------------------------*------|
D--------#---#---#-----------------------*--7----*--|
A----#--5---0---7-------55%%0%%%77%%-*--5-------7---|
E---2---------------22%%------------2---------------|
:
# solo-bg #
G----------------------------------------------------------------------------|
D--------------------------------------------------------------------*-------|
A-----------55-544-4-*-------*--------------55-544-4---------*------5-------*|
E---22-220-2--------5-------0-------22-220-2--------55-554-57---------------5|
:
# verse3 #   *=play 6X   (She told me if and whether...)
G-----------------------------------------------------------|
D------------*-------------------------------*--------------|
A-----------5--------*-------*-------*------5-------7-------|
E---2---------------5-------0-------2---------------0-------|
:

-----------------------------------------------------------------------------|
-----------------------------------------------------------------------------|
4) Remnants
# intro #   +=play 16X
G----------------------------+--------------------------------------|
D---2-------2-------2-------2---------------2-------2-------2-------|
A-------2-------0-------3-----------------------2-------0-------3---|
E-------------------------------------------------------------------|
:
# verse # *=play 5-6X +=play 8X with pauses
G--|-*-------*-------*-------*---*-|-*---*---*---*---+--|
D--|2----*--2-----*-2----*--2---2--|2---2---2---2---0---|
A--|----2-------20------3----------|--------------------|
E--|--------------2X---------------|--------------------|
:
# bridge # *=play 6X #=play 3X (Life's too short...)
G-------------/12-----------------------------------|
D----------------------------*--#-------------------|
A----*---*---*-------*---*--5---3-#--*---*---*---*--|
E---0---0---3-------0---0---------3-0---0---3---3---|
:
# verse2 # *=play 5-6X (I don't want it...)
G----*-------*-------*-------*---------------*----------------------------|
D---2----*--2----*--2----*--3---------------3----*------------------------|
A-------2------20-------3--------*---*---*------3-----2--3--6--7--2--3--6-|
E-------------------------------3---5---5-----------00-00-00-00-00-00-00--|
:
# acoustic bridge #
G-------------------------------------------------------------------|
D-------------------------765---------------------------------543---|
A-------123---------345---------123---------765---------123---------|
E---3---------345---------------------345---------543---------------|
:
# bridge2 # %=pause                      # solo-bg # *=play 6X
G-----%%%%%%%%%%%%%-------------------|  G-----------------------------------|
D-----%%%%%%%%%%%%%-------------------|  D------------*---*-----------*---*--|
A-----%%%%%%%%%%%%%-------2-1---1-2---|  A----*---*--5---3----*---*--5---0---|
E---0-%%%%%%%%%%%%%-0-2-3-----3-------|  E---0---3-----------0---3-----------|
:
# verse3 # *=play 5-6X
G--|-*-------*-------*-------*---*-|-*---*----------|
D--|2----*--2----*--2----*--2---2--|1---0-----------|
A--|----2------20-------3----------|--------3-0-----|
E--|--------------2X---------------|------------1-0-|
:
# outro # *=play 6X %=pause
G---------------------------------------------------------%--%--%-%|
D---5-5557-5--*-----5-5575-4--*-----5-5557-5--*-----5-5575%45%45%4%|
A------------7---------------7---------------7------------%--%--%-%|
E---------------------------------------------------------%--%--%-%|
:
# outro2 #
G--|---------------------|2X|----------------------|-----------|
D--|-----------------------------------------------|------5----|
A--|----------------5---------------3-----2-0------|----5--7---|
E--|0--------------------------------------------3-|0357-7-----|
:

------------------------------------------------------------------------------|
------------------------------------------------------------------------------|
5) Kill All The White Man:
# verse # X15   !remember the pause and end with first note!
G-------------------------------------------------------------------|
D--------------------------------------------------1010101010-8-7---|
A---8-8-8-----8-----8-8-8-----8--1010101010-8-----------------------|
E---------8---------------810--10------------10---------------------|
:
# chorus #  at 1:59  *=play 8X   #=play 13X
G------------|--------------4X--------------|-----------|
D------------|---#---------------#-------#--|-----------|
A----*-----*-|--3--------#------5-------8---|---3-3-----|
E---1-//-13--|----------3-------------------|-----------|

------------------------------------------------------------------------------|
------------------------------------------------------------------------------|
Hey guys, heres another NoFX album for Bass players only! Hope you enjoy and..if you 
this album tab, Please also Comment on it! PEACE

NoFX_2525
Добавлено: 23.07.2012
Другие материалы по этой песне:
  • Аккорды и текст

Страница создана 23.07.2012
http://primanota.ru/nofx/the-longest-line-album-chords.htm
Привет, Гость.
Предлагаем пройти революционный курс по гитаре.
Подарок от PrimaNota.Ru, забирай!