PrimaNota.ru - самый крупный в мире бесплатный архив песенных текстов, аккордов, табулатур и нот


Nofx - The Agony Of Victory - текст песни, таба, бас-таба, видео

Регистрация Запомнить меня
Войти через:  Facebook Google Twitter Vk Yandex Mail.ru

Nofx - The Agony Of Victory - текст песни, таба, бас-таба, видео

Печатать
Просмотров: 139
-------------------------------------------------------------------------------
                             The Agony of Victory - NOFX
-------------------------------------------------------------------------------
Tabbed by:Rob W.
Email:robbertt_tiddwell@yahoo.com

Here it is, my first ever guitar tab. I had a little 
trouble with the outro lead and rhythym but I know its close. 
And play around with taking the fifth chords (power chords) 
up an octave on the verse and intro to see what you like best. 

Tuning: EADGBe (Standard)
   
    Intro
e|---------------------------------------------------------------------------|
B|---------------------------------------------------------------------------|
G|----5-------7-------------5------------------------------------------------| 
D|----5-------7------5------5-----3------6------5------4-------3-------------|
A|-//-3-------5------5------3-----3------6------5------5-------3-------------|
E|-//----------------3------------1------4------3------2-------1-------------|

    Verse
e|---------------------------------------------------------------------------|
B|---------------------------------------------------------------------------|
G|------5------7-------------5-----------------------------------------------|
D|------5-x8---7-x8---5------5-x8---3------6------5------4------3------------|
A|-///--3------5------5-x8---3------3-x8---6-x8---5-x8---5-x8---3-x?---------|
E|-///----------------3-------------1------4------3------2------1------------|

    SOLO!!!
e|-----------------------------------------------------------12-13-12----12--|
B|---15b--15b--15br--13h15p13---------12-13-15-13--12-13-15-----------15-----|
G|-----------------------------12h14-----------------------------------------|
D|---------------------------------------------------------------------------|
A|---------------------------------------------------------------------------|
E|---------------------------------------------------------------------------|

e|-------------------------------------------------------------15------------|
B|---15-13-12-13---------------------13-15-13----13-----13-15-----15-13------|
G|----------------14-12~---12-13-14-----------14-----12----------------------|
D|---------------------------------------------------------------------------|
A|---------------------------------------------------------------------------|
E|---------------------------------------------------------------------------|

e|--------------12--17--12-----------------12--17--12----15-13-12-13-12------|
B|-------13-15--------------13----------13------------13---------------------|
G|---12-------------------------14~--14--------------------------------------|
D|---------------------------------------------------------------------------|
A|---------------------------------------------------------------------------|
E|---------------------------------------------------------------------------|

e|---13-15-17~---12-13-15~---12-13-15-13-12-----13-12------------------------|
B|------------------------------------------15--------15--12h13~-------------|
G|---------------------------------------------------------------------------|
D|---------------------------------------------------------------------------|
A|---------------------------------------------------------------------------|
E|---------------------------------------------------------------------------|

    Verse
e|---------------------------------------------------------------------------|
B|---------------------------------------------------------------------------|
G|------5------7-------------5-----------------------------------------------|
D|------5-x8---7-x8---5------5-x8---3------6------5------4------3------------|
A|-///--3------5------5-x8---3------3-x8---6-x8---5-x8---5-x8---3-x?---------|
E|-///----------------3-------------1------4------3------2------1------------|

   Outro Lead
e|---------------------------------------------------------------------------|
B|---------------------------------------------------------------------------|
G|--7b--7b--7b--7b--7br--5h7p5~----4h5-7~--7h9-10~--9h10p9~------------------|
D|---------------------------------------------------------6s7-6~---7-9-6~---|
A|---------------------------------------------------------------------------|
E|---------------------------------------------------------------------------|

e|---------------------------------------------------------------------------|
B|---------------------------------------------------------------------------|
G|---------------------------------------------------------------------------|
D|----7-9-10~--9-10~~~-------------------------------------------------------|
A|---------------------------------------------------------------------------|
E|---------------------------------------------------------------------------|

   Outro Rhythm (maybe...?) strum freely
e|---------------------------------------------------------------------------|
B|---------------------------------------------------------------------------|
G|----5-------7-------------5------------------------------------------------| 
D|----5-------7------5------5-----3------2------6------7-------3-------------|
A|-//-3-------5------5------3-----3------2------6------7-------3-Let Ring----|
E|-//----------------3------------1------0------4------5-------1-------------|


| /  plectrum slide
| ~  vibrato

===============================================================================
Добавлено: 16.04.2012
Другие материалы по этой песне:

Страница создана 25.02.2012
http://primanota.ru/nofx/the-agony-of-victory-chords.htm
Привет, Гость.
Предлагаем пройти революционный курс по гитаре.
Подарок от PrimaNota.Ru, забирай!