PrimaNota.ru - самый крупный в мире бесплатный архив песенных текстов, аккордов, табулатур и нот


Nofx - Tenderloin - текст песни, бас-таба, видео

Регистрация Запомнить меня
Войти через:  Facebook Google Twitter Vk Yandex Mail.ru

Nofx - Tenderloin - текст песни, бас-таба, видео

Печатать
Просмотров: 135
Авторы: Tim Armstrong, Matt Freeman

This is A Cover of An Old Rancid Song


Intro
----------------------------------------------------------------7-5-4--|
-5-55555555555-5-5555555555-5-5555555555-5-55555555555-----------------|
---------------------------------------------------------2-3-4-5-------|
-------------------------------------------------------3---------------|

-----------------------------12---12--12-----11--11-----12--12----12--12----|
-5-5555-4/5-5555-4/5-5555-12----12--12--12-12--12--12-12--12--12-12--12--12-|
----------------------------------------------------------------------------|
----------------------------------------------------------------------------|

-12-12-121212-11-11-11111111-1212121212-|
-12-12-121212-12-12-12121212-1212121212-|   (Those Are Twelves)
----------------------------------------|
----------------------------------------|

Verse
---------------------------------------------------------------------|
-------------------5-5555555-5-55555555------------------------------|
-3-333333-3-3333333--------------------3-3333333-3-3333333-5-5555320-|
---------------------------------------------------------------------|

Chorus
----------7-7777777-----------5-4-5-----------7-7777777-|
-5-555555-----------5-5555555-------5-5555555-----------|
--------------------------------------------------------|
--------------------------------------------------------|

-----------------------------12---12--12-----11--11-----12--12----12--12----|
-5-5555-4/5-5555-4/5-5555-12----12--12--12-12--12--12-12--12--12-12--12--12-|
----------------------------------------------------------------------------|
----------------------------------------------------------------------------|

-12-12-121212-11-11-11111111-1212121212-|
-12-12-121212-12-12-12121212-1212121212-|   (Those Are Twelves)
----------------------------------------|
----------------------------------------|

During Guitar Solo (Just Improvise)
--------------------------4-5-6-77777--------7-5-4-----------------|
---------------4-5-6-77777-----------7755----------7-5-4-----------|
-5555555555555---------------------------7755------------7-5-4-----|
--------------------------------------------------------------5/7--|

Outro
--------------------------------------12--12--11--11-----12---------|
-5-555555-55-555555-5-555555-5-555555---12--12--12--12-12--12-------|
--------------------------------------------------------------12-10-|
--------------------------------------------------------------------|

Rate This Or..not..You know..do whatever...
Добавлено: 31.07.2012
Другие материалы по этой песне:
  • Аккорды и текст

Страница создана 23.06.2012
http://primanota.ru/nofx/tenderloin-chords.htm
Привет, Гость.
Предлагаем пройти революционный курс по гитаре.
Подарок от PrimaNota.Ru, забирай!