PrimaNota.ru - самый крупный в мире бесплатный архив песенных текстов, аккордов, табулатур и нот


Nofx - Teenage Existentialist - бас-таба, видео

Регистрация Запомнить меня
Войти через:  Facebook Google Twitter Vk Yandex Mail.ru

Nofx - Teenage Existentialist - бас-таба, видео

Печатать
Просмотров: 156
Уроки эстрадного вокала в Санкт-Петербурге
This song is from the split with the spits
Tabbed by lolxd555

Intro/Verse
G|-------------------|
D|-------------------| X16
A|-------------------|
E|--3-5555-5555555---|
Verse Part 2
G|--------------------------------------------------------------------------|
D|--------------------------------------------------------------------------|
A|-33333333333------------------------------33333333333---------------------|
E|------------3-5555-5555555-3-5555-5555555-------------3-5555-5555553-55555|
Chorus 1
G|----------------------------------------------------------------|
D|-------------------------------55-5555-555555-------------------|
A|-33-3333-333333-55-5555-555555----------------00-0000-00000-----|
E|----------------------------------------------------------------|

-------------------------------------------------------------------|
--33-3333-333333-22-2222-222222------------------------------------|
--------------------------------55-5555-555555---------------------|
-----------------------------------------------00-0000-000000------|


Verse 2
G|-------------------|
D|-------------------| X 12
A|-------------------|
E|--3-5555-5555555---|


Verse 2 Part 2
G|--------------------------------------------------------------------------|
D|--------------------------------------------------------------------------|
A|-33333333333------------------------------33333333333---------------------|
E|------------3-5555-5555555-3-5555-5555555-------------3-5555-5555553-55555|

Then Play chorus

chorus 2
G|--------------------------------------------------------------|
D|------------------------------66-6666-666666------------------|
A|44-4444-444444-66-6666-666666---------------------------------|
E|----------------------------------------------66-6666-666666--|

-------------------------------------------------------------|
--44-4444-444444-33-3333-333333------------------------------|
--------------------------------66-6666-666666---------------|
-----------------------------------------------11-1111-111111|

Outro
G|----------------|
D|----------------| X8
A|----------------|
E|4-66-6666-666666|

This song is rad!
Добавлено: 23.04.2012
Другие материалы по этой песне:
  • Аккорды и текст

Страница создана 23.04.2012
http://primanota.ru/nofx/teenage-existentialist-chords.htm
Привет, Гость.
Предлагаем пройти революционный курс по гитаре.
Подарок от PrimaNota.Ru, забирай!