PrimaNota.ru - самый крупный в мире бесплатный архив песенных текстов, аккордов, табулатур и нот


Nofx - Sticking In My Eye - текст песни, бас-таба, видео

Регистрация Запомнить меня
Войти через:  Facebook Google Twitter Vk Yandex Mail.ru

Nofx - Sticking In My Eye - текст песни, бас-таба, видео

Печатать
Просмотров: 127
Уроки эстрадного вокала в Санкт-Петербурге
Sticking in my eye -  NOFX

Listen to the song for rythym

INTRO
G--10---9--10--7--6-|
D--12--10---8--8--7-|
A-------------------|
E-------------------|

PRE-VERSE
G--------------|
D--------------|  X2
A-----5>-3>-2>-|
E--0>----------|

VERSE
G----------------------------|
D----------------------------|
A-----5>-3>-3-3-3-3-3-3-2----|   X4
E--0>------------------------|

CHORUS
G-------------|-----------------------------------------------|
D-------------|-----------------------------------------------|
A--------0>-2>|--2------2-2------2-2------2-2-----------------|
E--0>-3>------|-----------------------------------------------|

BRIDGE
G-----------------------------------|
D-----------------------------------|      X3
A------------------3-3--5-5---------|
E--0---3-3-3-3-3-5-----------0------|

Glaucio de Oliveira
Glacius_new@hotmail.com
Добавлено: 11.03.2012
Другие материалы по этой песне:

Страница создана 11.03.2012
http://primanota.ru/nofx/sticking-in-my-eye-chords.htm
Привет, Гость.
Предлагаем пройти революционный курс по гитаре.
Подарок от PrimaNota.Ru, забирай!