PrimaNota.ru - самый крупный в мире бесплатный архив песенных текстов, аккордов, табулатур и нот


Nofx - So Long And Thanks For All The Shoes (album) - таба, видео

Регистрация Запомнить меня
Войти через:  Facebook Google Twitter Vk Yandex Mail.ru

Nofx - So Long And Thanks For All The Shoes (album) - таба, видео

Печатать
Просмотров: 86
Band: Nofx
Album tab: So long and thanks for all the shoes


1. Its my job to keep punk rock elite

intro:


b--------------------------|
g--555555555555------------|
d--555555555555------------|
a--333333333333------------|
e--------------------------|

guitar 1
b--------------------------------------------------|
g-----------1515----1010---------------------------|
d------1010-1515-88-1010---------------------------|
a------1010-1313-88--8-8---------------------------|
e-------8-8------66--------------------------------|
guitar2
b-----------------------------------------------|
g---------10108--------10108--1515--1010--------|
d--1010~--1010810~-----10108101515881010--------|
a--1010~---8-8610~------8-8610131388-8-8--------|
e---8-8~--------8~-----------8----66------------|

indiscriminate.....
b------------------------------------------------------------------|
g-55555510101010--------888888888855555555-------4444444488888888--|
d-555555101010106666666688888888885555555566666664444444488888888--|
a-333333-8-8-8-86666666666666666663333333366666662222222266666666--|
e---------------44444444------------------4444444------------------|

you'll never understand it....
b----------------------------------------|
g--55555555555555------------------------|
d--55555555555555------------------------|
a--33333333333333------------------------|
e----------------------------------------|

cuz it's my job to keep punk rock elite
b------------------------------------------------------------|
g--66-655-533-3-----------------8~~~~------------------------|
d--------------66-655-533-38888-8~~~~------------------------|
e-------------------------------6~~~~------------------------|

2. Kids  of the k-hole

# intro #A&B X2 !play all notes X6!  %=pause  !pick-slide last time!
E-----------------------------------|
B-----------------------------------|
G--14-------------------------------|
D--14-------2-------4-------7---7---|
A--12-%%%%%-4-%%%%%-5-%%%%%-7---7---|
E---------------------------5---5---|
:
# into-verse #A&B !play all notes X6!
E---------------------------|
B---------------------------|
G-----------5---------------|
D---3---3---5-------3---3---|
A---3---3---3---2---3---3---|
E---1---1-------3---1---1---|
:
# verse #A   !play all notes X12!   (An 18 hour holiday...)
E-----------------------------------------------|
B-----------------------------------------------|
G---7--------------------------------------10---|
D---7-------7-------2-------0-------3------10---|
A---5-------7-------3-------0-------3-------8---|
E-----------5-------3-------2-------1-----------|
# verse #B   !play all notes X12!
E-----------------------------------------------|
B-----------------------------------------------|
G------------------------------------------10---|
D------------------------------------------10---|
A---8-------7-------7-------5-------3-------8---|
E-----------------------------------------------|
:
# verse2 #A   *=play 12X            h=hammer-on                     >
E-----------------------------------------------------6/8----------->
B----*---------------*--------------------------------6/8-6h8-6-66-->
G---5---------------3----------------*--------------5----------8--5->
D---5---------------3---------------3---------------5--------------->
A---3---------------1---------------3---------------3--------------->
E-----------------------------------1------------------------------->
# verse2 #B   *=play 12X                                            >
E------------------------------------------------------------------->
B----*---------------*-------------------------------*-------------->
G---5---------------3----------------*--------------5--------------->
D---5---------------3---------------3---------------5--------------->
A---3---------------1---------------3---------------3--------------->
E-----------------------------------1------------------------------->
>verse2A
>-------------------------------------------------------------------|
>----*---------------*----------------------------------------------|
>---5---------------3----------------*------------------------------|
>---5---------------3---------------3---------------3---------------|
>---3---------------1---------------3---------------3---------------|
>-----------------------------------1---------------1---------------|
>verse2B
>-------------------------------------------------------------------|
>----*---------------*----------------------------------------------|
>---5---------------3----------------*------------------------------|
>---5---------------3---------------3-------------------------------|
>---3---------------1---------------3---------------3---------------|
>-----------------------------------1-------------------------------|
:

:
:
KIDS OF THE K-HOLE                                                        2/2
:
# verse3 #A&B *=play 12X   #=play 6X   (Somewhere between eden...)
E-------------------------------------------------------------|
B----------*-----*-----------------*-----------*-----#-----*--|
G----*---10----12------#-----*---10------#---10-----7---#10---|
D---7----10----12----10---#-7----10----10---#10-----7--7-10---|
A---7-----8----10----10--5--7-----8----10--5--8-----5--7--8---|
E---5-----------------8--7--5-----------8--7-----------5------|
:
# verse4 #A   !B plays verse2B!   *=play 12X    b=bend-up           >
E------------------------------------------------------------------->
B----*---------------*-----------------------------------------16--->
G---5---------------3----------------*----------------17-15-15b--17->
D---5---------------3---------------3--------------10-17-15--------->
A---3---------------1---------------3--------------10--------------->
E-----------------------------------1---------------8--------------->
>verse4A
>-------------------------------------------------------------------|
>----*---------------*----------------------------------------------|
>---5---------------3----------------*------------------------------|
>---5---------------3---------------3---------------3---------------|
>---3---------------1---------------3---------------3---------------|
>-----------------------------------1---------------1---------------|
:
# verse5 #A   *=play 12X   #=play 6X    (It may sound good to you...)
E-------------------------------------------------------|
B----------*-----------*-----*--------------------------|
G----*---10------#---10-----7------*-----*-----*--------|
D---7----10----10---#10-----7-----7-----2-----0-----3---|
A---7-----8----10--5--8-----5-----7-----3-----0-----3---|
E---5-----------8--7--------------5-----3-----2-----1---|
# verse5 #B   *=play 12X   #=play 6X
E-------------------------------------------------------|
B----------*-----------*--------------------------------|
G--------10------#---10---------------------------------|
D---7----10----10---#10------*-----*-----*-----*--------|
A---7-----8----10--5--8-----8-----7-----7-----5-----3---|
E---5-----------8--7------------------------------------|

3. Murder the Government

Intro

e|-------7-------4-------0---------------------2-------------------------|
B|-------7-------4-------0------------------2----------------------------|
G|-------8-------5-------1---------------3-------------------------------|
D|-------9-------6-------2------------4----------------------------------|
A|-------9-------6-------2---------4-------------------------------------|
E|-------7-------4-------0------2----------------------------------------|

Verse

e|-----------------------------------------------------------------------|
B|-----------------------------------------------------------------------|
G|----4-4-4-4-4----------------------------------------------------------|
D|----4-4-4-4-4---6-6-6-6-6---2-2-2-2-2---4-4-4-4-4----------------------|
A|----2-2-2-2-2---6-6-6-6-6---2-2-2-2-2---4-4-4-4-4----------------------|
E|----------------4-4-4-4-4---0-0-0-0-0---2-2-2-2-2----------------------|

End

e|--------------------7--------------------------------------------------|
B|-----------------7-----------------------------------------------------|
G|--------------8--------------------------------------------------------|
D|-----------9-----------------------------------------------------------|
A|--------9--------------------------------------------------------------|
E|-----7-----------------------------------------------------------------|

4. Monosyllabic girl


intro
E---------------------------------------------------------------------|
B---------------------------------------------------------------------|
G------5--12--10--12-----5--12--10--12-----5--12--10--12-----5--12----|
D------5--12--10--12-----5--12--10--12-----5--12--10--12-----5--12----|
A------3--10--8---10-----3--10--8---10-----3--10--8---10-----3--10----|
E---------------------------------------------------------------------|

palm muted
E---------------------------------------------------------------------|
B---------------------------------------------------------------------|
G---10--12-----5--12--10--12-----5--12--10--12-----5--------5--12-----|
D---10--12-----5--12--10--12-----5--12--10--12-----5--------5--12-----|
A---8---10-----3--10--8---10-----3--10--8---10-----3--------3--10-----|
E---------------------------------------------------------------------|

palm muted
E---------------------------------------------------------------------|
B---------------------------------------------------------------------|
G---10--12--------5--------5--12--10--12-----5--5--5--------5--9--10--|
D---10--12--------5--------5--12--10--12-----5--5--5--------5--9--10--|
A---8---10--------3--------3--10--8---10-----3--3--3--------3--7--8---|
E---------------------------------------------------------------------|

E---------------------------------------------------------------------|
B---------------------------------------------------------------------|
G---13--10--12--5-----------------5--12--10--12-----5--12--10--12-----|
D---11--10--12--5-----------------5--12--10--12-----5--12--10--12-----|
A---11--8---10--3-----------------3--10--8---10-----3--10--8---10-----|
E---------------------------------------------------------------------|

palm muted
E---------------------------------------------------------------------|
B---------------------------------------------------------------------|
G---------------------------5--------5--12--10--12--------------------|
D---------------------------5--------5--12--10--12--------------------|
A---------------------------3--------3--10--8---10--------------------|
E---------------------------------------------------------------------|

palm muted
E---------------------------------------------------------------------|
B---------------------------------------------------------------------|
G------------------------5--------5--12--10--12-----------------------|
D------------------------5--------5--12--10--12-----------------------|
A------------------------3--------3--10--8---10-----------------------|
E---------------------------------------------------------------------|

E---------------------------------------------------------------------|
B---------------------------------------------------------------------|
G---------------------5--5--5--------5--9--10--13--10--12--5----------|
D---------------------5--5--5--------5--9--10--11--10--12--5----------|
A---------------------3--3--3--------3--7--8---11--8---10--3----------|
E---------------------------------------------------------------------|

5. 180 degrees

# intro #A   /x\=palm-muted   %=pause               >
E---------------------------------------------/---\->
B--------------------------------------------------->
G---5-----------------------------------------6-6-6->
D---5-----------------------------------------6-6-6->
A---3-----------------------------------------4-4-4->
E--------------------------------------------------->
# intro #B                                          >
E--------------------------------------------------->
B--------------------------------------------------->
G------------101313131010-8-5-5-5-3-5---------6-6-6->
D--101010-810101313131010-8-5-5-5-3-5-3-5-5-5-6-6-6->
A--101010-810-8111111-8-8-6-3-3-3-1-3-3-5-5-5-4-4-4->
E---8-8-8-6-8-------------------------1-3-3-3------->
>introA
>-----------------------------------------------------|
>-----------------------------------------------------|
>---5-----------------------5-5-----------------------|
>---5-----------------------5-5-----------------------|
>---3-----------------------3-3-%%%%%%%%%%%%%%%%%%%%%-|
>-----------------------------------------------------|
>introB
>-----------------------------------------------------|
>-----------------------------------------------------|
>------------101313131010-8-5-5-5-3-5---------6-6-6---|
>--101010-810101313131010-8-5-5-5-3-5-3-5-5-5-6-6-6---|
>--101010-810-8111111-8-8-6-3-3-3-1-3-3-5-5-5-4-4-4---|
>---8-8-8-6-8-------------------------1-3-3-3---------|
:
Then play A&BintroB.
:
# ska-verse #A   *=play 8X     #=play 4X                 >
E---8-------------7------------101010------10-8-----10--->
B---8-------------8------------1010--10--10---8------8--->
G----*-------------*-------------------10------#------#-->
D-------------------------------------------------------->
A-------------------------------------------------------->
E-------------------------------------------------------->
# ska-verse #B                                           >
E-------------------------------------------------------->
B---------------6-6-----------6-6-----------6-6---------->
G---------------5-7-----------5-7-----------7-5---------->
D-------------------------------------------------------->
A-------------------------------------------------------->
E-------------------------------------------------------->
>ska-verseA                                              >
>---8-------------7-----/7-----10-------------8-----10--->
>---8-------------8-----/8-----10-------------8------8--->
>----*-------------#------#------*-------------#------#-->
>-------------------------------------------------------->
>-------------------------------------------------------->
>-------------------------------------------------------->
>ska-verseB                                              >
>-------------------------------------------------------->
>-5-6-----------6-6-----------6-6-----------6-6---------->
>-5-7-----------5-7-----------5-7-----------7-5---------->
>-------------------------------------------------------->
>-------------------------------------------------------->
>-------------------------------------------------------->
:
:
>ska-verseA
>---8-------------7-7-7-------710-------------/palm-muted-\---|
>---8-------------8-8---8---8--10-----------------------------|
>----*--------------------7------*----------------------------|
>---------------------------------------------3333333333333---|
>---------------------------------------------3333333333333---|
>---------------------------------------------1111111111111---|
>ska-verseB
>---------------------------------------------/palm-muted-\---|
>-5-6-----------6-6-----------6-6-----------------------------|
>-5-7-----------5-7-----------5-7-----------------------------|
>---------------------------------------------3333333333333---|
>---------------------------------------------3333333333333---|
>---------------------------------------------1111111111111---|
:
# verse #A                                  >
E------------------------------------------->
B----------------------------*-----------*-->
G----*----------------------7----------10--->
D--10------------*----------7----------10--->
A--10-----------5-----------5-----------8--->
E---8-----------7--------------------------->
# verse #B   *=play 12X  +=play 6X #=play 3X>
E------------------------------------------->
B----------------------------------------*-->
G----*---------------------------------10--->
D--10------------#--#--#--#--*---------10--->
A--10-----------5-10--8--7--8-----------8--->
E---8-----------7--------------------------->
>verseA
>---------------------------------------------/mute\---------|
>----------------------------*-----------+-------------------|
>----*----------------------7----------10-----99999910-9-7---|
>--10------------*----------7----------10-----99999910-9-7---|
>--10-----------5-----------5-----------8-----777777-8-7-5---|
>---8-----------7--------------------------------------------|
>verseB         %=pause
>------------------------------------------------------------|
>----------------------------------------+-------------------|
>----*---------------------------------10-----9-----10-9-7---|
>--10------------#--#--#--#--*---------10-----9-----10-9-7---|
>--10-----------5-10--8--7--8-----------8-----7-%%%%-8-7-5---|
>---8-----------7--------------------------------------------|
:
# bridge #A
E---------------------------------------------------------|
B---------------------------------------------------------|
G---5------------555555555555-5------------------5--------|
D---5------------555555555555-5------------------5--------|
A---3------------333333333333-3------5-----4-----3--------|
E---------------------------------------------------------|
# bridge #B
E---------------------------------------------------------|
B---------------------------------------------------------|
G---------------------------------------------------------|
D---------------------------------------------------------|
A---3333535888888777875333333-3333535888888777875333333---|
E---------------------------------------------------------|
:
Then play AverseA or BverseB.
:
# bridge2 #A&B
E-------------|
B-------------|
G---5555555---|
D---5555555---|
A---3333333---|
E-------------|
:
# verse2 #A   !play all notes X6!   *=play once   (Oh yeah...)
E---------------------------------------------------------------|
B---------------------------------------------------------------|
G---5-------7-------5-------7-------5-------7-------5--------*--|
D---5---5---7---3---5---5---7---3---5---5---7---3---5---5---3---|
A---3---5---5---3---3---5---5---3---3---5---5---3---3---5---3---|
E-------3-------1-------3-------1-------3-------1-------3---1---|
# verse2 #B   !play all notes X6!   *=play once
E---------------------------------------------------------------|
B---------------------------------------------------------------|
G---5-------7--10---5-------7--10---5-------7--10---5--------*--|
D---5---5---7--10---5---5---7--10---5---5---7--10---5---5---3---|
A---3---5---5---8---3---5---5---8---3---5---5---8---3---5---3---|
E-------3---------------3---------------3---------------3---1---|
:
# ska-outro #A   *=play 8X     #=play 4X
E---8-------------7------------10-------------8-----10---8\--|
B---8-------------8------------10-------------8------8---8\--|
G----*-------------*-------------*-------------#------#------|
D------------------------------------------------------------|
A------------------------------------------------------------|
E------------------------------------------------------------|
# ska-outro #B
E------------------------------------------------------------|
B---------------6-6-----------6-6-----------6-6----------5\--|
G---------------5-7-----------5-7-----------7-5----------5\--|
D------------------------------------------------------------|
A------------------------------------------------------------|
E------------------------------------------------------------|
:

6. All his suits are torn

Verse 1
e|-----------------------------------------------------------------------|
B|-----------------------------------------------------------------------|
G|-----------------------------------------------------------------------|
D|-10-x16---7-x16-----------10-x16---------------------------------------|
A|-8--------5-------8-x16---8--------------------------------------------|
E|------------------6----------------------------------------------------|
PM .        .       .       .

e|-----------------------------------------------------------------------|
B|-----------------------------------------------------------------------|
G|-10-x16---7-x16---------------------------------------6----------------|
D|-10-------7-------8-x8---10-x8---12-x8---10-x8---8----8----------------|
A|-8--------5-------8------10------12------10------8----8----------------|
E|------------------6------8-------10------8-------6----6----------------|
PM .        .

Verse 2                              Guitar 2 (clean)
e|----------------------------------|------------------------------------|
B|----------------------------------|--------10--------------------------|
G|----------------------------------|-----10---------10------------------|
D|-10-x16---7-x16-----------10-x16--|-------------10---------------------|
A|-8--------5-------8-x16---8-------|---8-------8------------------------|
E|------------------6---------------|------------------------------------|
PM .        .       .       .

e|-----------------------------------------------------------------------|
B|-----------------------------------------------------------------------|
G|-10-x16---7-x16---------------------------------------6----------------|
D|-10-------7-------8-x8---10-x8---12-x8---10-x8---8----8----------------|
A|-8--------5-------8------10------12------10------8----8----------------|
E|------------------6------8-------10------8-------6----6----------------|
PM .        .

Pre-Chorus
e|-----------------------------------------------------------------------|
B|-----------------------------------------------------------------------|
G|-10-10---10-10---11-x16------------------------------------------------|
D|-10-10---10-10---11----------------------------------------------------|
A|-8--8----8--8----9-----------------------------------------------------|
E|-----------------------------------------------------------------------|

Chorus
e|-----------------------------------------------------------------------|
B|-----------------------------------------------------------------------|
G|-----------------------------------------------------------------------|
D|-8-x8---3-x8---10-x8---12-x8-----8-x8---8-x8---10-x8---12-x8-----------|
A|-8------3------10------12--------8------8------10------12--------------|
E|-6------1------8-------10--------6------5------8-------10--------------|

e|-----------------------------------------------------------------------|
B|-----------------------------------------------------------------------|
G|------------------------------------6----------------------------------|
D|-8-x8---3-x8---10-x8---12-x8---8----8----------------------------------|
A|-8------3------10------12------8----8----------------------------------|
E|-6------1------8-------10------6----6----------------------------------|

Verse 3                              Guitar 2 (distortion)
e|----------------------------------|------------------8-----------------|
B|----------------------------------|---------------10-------------------|
G|----------------------------------|-----10-----10----------------------|
D|-10-x16---7-x16-----------10-x16--|------------------------------------|
A|-8--------5-------8-x16---8-------|---8------8-------------------------|
E|------------------6---------------|------------------------------------|
PM .        .       .       .

e|-----------------------------------------------------------------------|
B|-----------------------------------------------------------------------|
G|-10-x16---7-x16---------------------------------------6----------------|
D|-10-------7-------8-x8---10-x8---12-x8---10-x8---8----8----------------|
A|-8--------5-------8------10------12------10------8----8----------------|
E|------------------6------8-------10------8-------6----6----------------|
PM .        .

Pre-Chorus
e|-----------------------------------------------------------------------|
B|-----------------------------------------------------------------------|
G|-10-10--10-10---11-x16-------------------------------------------------|
D|-10-10--10-10---11-----------------------------------------------------|
A|-8--8---8--8----9------------------------------------------------------|
E|-----------------------------------------------------------------------|

Chorus
e|-----------------------------------------------------------------------|
B|-----------------------------------------------------------------------|
G|-----------------------------------------------------------------------|
D|-8-x8---3-x8---10-x8---12-x8-----8-x8---8-x8---10-x8---12-x8-----------|
A|-8------3------10------12--------8------8------10------12--------------|
E|-6------1------8-------10--------6------5------8-------10--------------|

e|-----------------------------------------------------------------------|
B|-----------------------------------------------------------------------|
G|-----------------------------------------------------------------------|
D|-8-x8---3-x8---10-x8---12-x8-------------------------------------------|
A|-8------3------10------12----------------------------------------------|
E|-6------1------8-------10----------------------------------------------|

Outro x4
e|-----------------------------------------------------------------------|
B|-----------------------------------------------------------------------|
G|-----------------------------------------------------------------------|
D|-8---5---3-------------------------------------------------------------|
A|-8---8---3-------------------------------------------------------------|
E|-6---6---1-------------------------------------------------------------|

7. All outta angst

Intro
(ska rhythm)

  C     Em     Am      G
--8------7------5------3------| (x2)
--8------8------5------3------|
--9------9------5------4------|
-10-(x4)-9-(x4)-7-(x4)-5-(x4)-|
------------------------------|
------------------------------|

I'm not insane, I'm not bummed out...
(ska rhythm)

  C     Em      Am     G           G        C     Em
--8------7------5------3-----1-----3--------8------7------|
--8------8------5------3------1----3--------8------8------|
--9------9------5------4-------2---4--------9------9------|
-10-(x8)-9-(x8)-7-(x4)-5-(x4)---3--5-(x4)--10-(x8)-9------|(x8)
----------------------------------------------------------|
----------------------------------------------------------|

Society don't bother me...

(distortion)
-------------|
-------------|
-------------|
-7--5--3--5--|
-7--5--3--5--|
-5--3--1--3—-|

then repeat like intro and the verse

8. I'm telling Tim

intro #A
E----------------------------------------------------------------------------|
B----------------------------------------------------------------------------|
G----------------------------------------------------------------------------|
D--10------------------------------------------------------------------------|
A--10------------------------------------------------------------------------|
E---8------------------------------------------------------------------------|
# intro #B
E----------------------------------------------------------------------------|
B----------------------------------------------------------------------------|
G----------------------------------------------------------------------------|
D--101010-7-7-7-5-5-5-3-3-3101010-7-7-7-5-5-5-3-3-3101010-7-7-7-5-5-5-3-3-3--|
A--101010-7-7-7-5-5-5-3-3-3101010-7-7-7-5-5-5-3-3-3101010-7-7-7-5-5-5-3-3-3--|
E---8-8-8-5-5-5-3-3-3-1-1-1-8-8-8-5-5-5-3-3-3-1-1-1-8-8-8-5-5-5-3-3-3-1-1-1--|
:
# main #A X2
E-----------------------------|
B-----------------------------|
G--------------------101010---|
D--101010-7-7-7-5-5-5101010---|
A--101010-7-7-7-5-5-5-8-8-8---|
E---8-8-8-5-5-5-3-3-3---------|
# main #B X2
E-----------------------------|
B-----------------------------|
G-----------------------------|
D--101010-7-7-7-5-5-5-3-3-3---|
A--101010-7-7-7-5-5-5-3-3-3---|
E---8-8-8-5-5-5-3-3-3-1-1-1---|
:
# main-part2 #A
E--------------------------------------------------|
B--------------------------------------------------|
G--------------------------------------------------|
D---------------------------------------------10---|
A---------------------------------------10-12------|
E---8-8-8-8-8-8-8-8-8-8-8-8-8-8-8-8-8-8------------|
# main-part2 #B
E--------------------------------------------------|
B--------------------------------------------------|
G--------------------------------------------------|
D--101010-7-7-7-5-5-5-3-3-3------------------------|
A--101010-7-7-7-5-5-5-3-3-3-7-7-7-7-7-7-10-10--8---|
E---8-8-8-5-5-5-3-3-3-1-1-1------------------------|
:
# verse #A   *=play 6X   #=play 3X   %=pause
E---------------------------------------------------------------|
B--------------------------------------------*-------*-------*--|
G----------10--------*-------#-------*-----12------10------10---|
D--10------10------10------10----#--7------12------10------10---|
A--10-%%%%%-8-%%%%%10------10---5---7------10-------8-------8---|
E---8---------------8-------8---7---5---------------------------|
# verse #B   *=play 6X   #=play 3X   %=pause
E---------------------------------------------------------------|
B---------------------------------------------------------------|
G----------10--------*-------#-------*-------*-------*-------*--|
D--10------10------10------10----#--7-------5-------3-------3---|
A--10-%%%%%-8-%%%%%10------10---5---7-------5-------3-------3---|
E---8---------------8-------8---7---5-------3-------1-------1---|
:

:
:
:
I'M TELLING TIM                                                           2/2
:
# verse-part2 #A&B   *=play 6X  (Cause it's not what you've told...)
E-------------------------------|
B------------*------------------|
G----*-----10--------*-------*--|
D--10------10------10------10---|
A--10-------8------10------10---|
E---8---------------8-------8---|
:
# chorus #A   *=play 12X
E---------------|
B------------*--|
G----*-----10---|
D---7------10---|
A---7-------8---|
E---5-----------|
# chorus #B   *=play 12X
E---------------|
B---------------|
G----*-------*--|          > Then play AmainAX2 or BmainBX2
D---7-------3---|
A---7-------3---|
E---5-------1---|
:
# main-part2 #A   !B plays main-part2B!   h=hammer-on
E----------------------------------------------------------|
B-------------------------------------------10-----10-13---|
G--------------------------------------10h12--10h12--------|
D----------------------------------------------------------|
A----------------------------------------------------------|
E---8-8-8-8-8-8-8-8-8-8-8-8-8-8-8-8-8-8--------------------|
:
# verse2 #A   *=play 6X   #=play 3X
E---------------------------------------------------------------|
B------------*-------------------------------*-------*-------*--|
G----*-----10--------*-------#-------*-----12------10------10---|
D--10------10------10------10----#--7------12------10------10---|
A--10-------8------10------10---5---7------10-------8-------8---|
E---8---------------8-------8---7---5---------------------------|
# verse2 #B   *=play 6X   #=play 3X
E---------------------------------------------------------------|
B------------*--------------------------------------------------|
G----*-----10--------*-------#-------*-------*-------*-------*--|
D--10------10------10------10----#--7-------5-------3-------3---|
A--10-------8------10------10---5---7-------5-------3-------3---|
E---8---------------8-------8---7---5-------3-------1-------1---|

9. Champs elysees

INTRO(guitar 1)
e|--------------------------------------------------------------------|
B|--------------------------------------------------------------------|
G|--------------------------------------------------------------------|
D|---------------X3---------------------------------------------------|
A|-10-9-7-77-5------10-9-7-77-9---------------------------------------|
E|--------------------------------------------------------------------|

INTRO(guitar 2)
e|--------------------------------------------------------------------|
B|--------------------------------------------------------------------|
G|-5-XXX-5-XXX-12-XXX-12-XXX-7-XXX-7-XXX-10-XXX-10--------------------|
D|-5-XXX-5-XXX-12-XXX-12-XXX-7-XXX-5-XXX-10-XXX-10----X4--------------|
A|-3-XXX-3-XXX-10-XXX-10-XXX-5-XXX-5-XXX-8--XXX-8---------------------|
E|--------------------------------------------------------------------|

VERSE-NO GUITAR

CHORUS
e|--------------------------------------------------------------------|
B|--------------------------------------------------------------------|
G|-----5---5-5-5-5-----------5-5-5-5----------------------------------|
D|-3-5-5---5-5-5-5-7-7-5-5---5-5-5-5-7-7-10-10------------------------|
A|-3-5-3---3-3-2-2-7-7-5-5---3-3-2-2-7-7-10-10------------------------|
E|-1-3-------------5-5-3-3-----------5-5-8--8-------------------------|

e|--------------------------------------------------------------------|
B|--------------------------------------------------------------------|
G|-5-5-5-5--12-12-12-12--5-5-5-5-5-5-5-5--5-5-5-5--10-10-10-10------5-|
D|-5-5-5-5--12-12-12-12--5-5-5-5-5-5-5-5--5-5-5-5--10-10-10-10--3-5-5-|
A|-3-3-3-3--10-10-10-10--3-3-3-3-3-3-3-3--3-3-3-3--8--8--8--8---3-5-3-|
E|--------------------------------------------------------------1-3---|

BRIDGE
e|--------------------------------------------------------------------|
B|--------------------------------------------------------------------|
G|-------------------5-5-5---------------------------5-5-5-5----------|
D|-3-3-3-3--5-5-5-5--5-5-5--7-7-7--3-3-3-3--5-5-5-5--5-5-5-5----X2----|
A|-3-3-3-3--5-5-5-5--3-3-2--7-7-7--3-3-3-3--5-5-5-5--3-3-2-3----------|
E|-1-1-1-1--3-3-3-3---------5-5-5--1-1-1-1--3-3-3-3-------------------|


10. Dad's bad news

bass intro and then:

b------------------------------------------------|
g--555565----------------------------------------|
d--------86666666644444455555668-----------------|  x2
a------------------------------------------------|
e------------------------------------------------|
   chorus:
dont believe of what.....     x2               then
b--------------------------------------------|----------------------|
g--------------------------------------------|----------------------|
d----------------666666----------------------|----------------------|
a--666666-222222-444444-xx4xx6---------------|--6666666666----------|
e--444444-000000--------xx2xx4---------------|--4444444444----------|
pm........................ ..

degeneration........
b------------------------------------------------------|
g--44444444466666666666--------------------------------|
d--444444444666666666662222222222-44x66----------------|   x1
a--222222222444444444442222222222-44x66----------------|
e----------------------0000000000-22x44----------------|

no simple way to tell you son........
b----------------------------------------------------------|
g--------------6666666999999944444443333333--------999999--|
d-4444446666666666666699999994444444333333366666666999999--|
a-4444446666666444444477777772222222111111166666666777777--|
e-2222224444444----------------------------44444444--------|
repeat chorus and end it.


11. kill rock stars

Intro

Guitar A
|---------------------|
|---------------------|
|---------------------|
|-14--12--10--12------|
|-12--10---8--10--12--|
|-----------------10--|


Riff 1

Guitar B
|------------------------------------------------------|
|------------------------------------------------------|
|------------------------55555-------77777-55555-55555-|
|-777777-3-3-3-3--333333-55555-33333-77777-55555-55555-|
|-777777-3-3-3-3--333333-33333-33333-55555-33333-33333-|
|-555555-1-1-1-1--555555-------11111-------------------|

Guitar A
|------------------------------------------------------|
|------------------------------------------------------|
|--------10101010--------55555-------77777-55555-55555-|
|-777777-10101010-333333-55555-33333-77777-55555-55555-|
|-777777--8-8-8-8-333333-33333-33333-55555-33333-33333-|
|-555555----------555555-------11111-------------------|


Guitar B
|---------------------------------------------------|
|---------------------------------------------------|
|---------------------55555-------77777-55555-55555-|
|-777777-3333--333333-55555-33333-77777-55555-55555-|
|-777777-3333--333333-33333-33333-55555-33333-33333-|
|-555555-1111--555555-------11111-------------------|

Guitar A
|---------------------------------------------------|
|---------------------------------------------------|
|-555555-5555--777777-99-77-55555-1010-10/99--10/99-|
|-xxxxxx-xxxx--xxxxxx-xx-xx-xxxxx--x-x--x-xx---x-xx-|
|-333333-3333--555555-77-55-33333--8-8--8/77---8/77-|
|---------------------------------------------------|


Guitar B
|-------------|
|-------------|
|-77777-------|
|-77777-77777-|
|-55555-77777-|
|-------55555-|

Guitar A
|------------------|
|------------------|
|-------1414141414-|
|-77777--x-x-x-x-x-|
|-55555-1212121212-|
|------------------|


Riff 2

Guitar B
|-----------------------------------|
|-----------------------------------|
|-----------------------------------|
|-101010-999-777-555--7777-10101010-|
|-101010-999-777-555--5555--8-8-8-8-|
|--8-8-8-777-555-333----------------|

Guitar A
|-----------------------------------|
|-----------------------------------|
|-555-777-999-101010----------------|
|-xxx-xxx-xxx--x-x-x--7777-10101010-|
|-333-555-777--8-8-8--5555--8-8-8-8-|
|-----------------------------------|


Riff 1 (again)


Riff 3

Guitar B
|-----------------------------------|
|-----------------------------------|
|-----------------------------------|
|-101010-999-777-555--7777-10101010-|
|-101010-999-777-555--5555--8-8-8-8-|
|--8-8-8-777-555-333----------------|

Guitar A
|-----------------------------------|
|-----------------------------------|
|-555-777-999-101010-------14141414-|
|-xxx-xxx-xxx--x-x-x--7777--x-x-x-x-|
|-333-555-777--8-8-8--5555-12121212-|
|-----------------------------------|


Guitar B
|------------------------------|
|------------------------------|
|--------------------------10~-|
|-101010-999-777-555--7777-10~-|
|-101010-999-777-555--5555--8~-|
|--8-8-8-777-555-333-----------|

Guitar A
|------------------------------|
|------------------------------|
|-555-777-999-101010-------10~-|
|-xxx-xxx-xxx--x-x-x--7777-10~-|
|-333-555-777--8-8-8--5555--8~-|
|------------------------------|


12. Eat the meek

# intro #AX4 !play all notes X4!  # verse #AX2 !play all notes X4!
E---5-------6-------|             E---5---6-------8---|
B---6--10---6--10---|also         B---6---6--10---8---|
G---7--10---7--10---|chorus       G---7---7--10---9---| > Then play AintroAX2.
D---7--10---8--10---|             D---7---8--10--10---|
A-------------------|             A-------------------|
E-------------------|             E-------------------|
:   Dm  F   A#  F                     Dm  A#  F   C
:
# verse2 #A !play all notes X4!   (The factory mass producing...)
E---5---6---8-------5-------8---5---|
B---6---6---8--10---6--10---8---5---|
G---7---7---9--10---7--10---9---6---|
D---7---8--10--10---7--10--10---7---|   > Then play AintroAX2.
A-----------------------------------|
E-----------------------------------|
:   Dm  A#  C   F   Dm  F   C   A
:
# verse3 #B   !palm-muted!
E-------------------------------------------------------|
B-------------------------------------------------------|
G--------------------------------555--------------------|
D------333----------333-------333---3333------55532-----|
A---555---5300---111---1111----------------333-----33---|
E-------------------------------------------------------|
:
Then play AverseA or Bverse3B.
:
# chorus #A   *=play 16X
E-----------------------------------|
B----*---*---*---*---*---*---*---*--|
G--10--10--10--10--10--10--10--11---|
D-----------------------------------|
A-----------------------------------|
E-----------------------------------|
# chorus #B   *=play 16X palm-muted
E-----------------------------------|
B-----------------------------------|
G----*---*-------*---*---*-------*--|
D---7--10----*-10---7--10----*--7---|
A---5---8---8---8---5---8---5---5---|
E-----------6---------------3-------|


13. The Desperation's gone

Intro
  Repeat                 3rd time
e---------------------|-------------------------------------------------|
B--------------------*|-------------------------------------------------|
G-14---12---12---13---|--14---12---12---10------------------------------|
D---------------------|-------------------------------------------------|
A-12---10---10---11--*|--12---10---10----8------------------------------|
E---------------------|-------------------------------------------------|

  Repeat
e--------------------------------------------------------------------------|
B-------------------------------------------------------------------------*|
G----------12--10---13---12---10---12---12---14---10--10--13---------5-----|
D-7---10---12-------------------------------------10--10------10--3--5--3--|
A-7---10---10---8---11---10----8---10---10---12----8---8--11--10--3--3--3-*|
E-5----8-------------------------------------------------------8--1-----1--|

e-----------------------------------------------------------------------|
B-----------------------------------------------------------------------|
G-5-----5-----5---------------------------------------------------------|
D-5--3--5--3--5---------------------------------------------------------|
A-3--3--3--3--3---------------------------------------------------------|
E----1-----1------------------------------------------------------------|

14. Flossing a dead horse

 e--5---5-5------4---4-4------2---2-2------5---5-5-|
 B--5---5-5------5---5-5------2---2-2------7---7-7-|
 G--6---6-6------6---6-6------3---3-3------7---7-7-|
 D--7---7-7------6---6-6------4---4-4------7---7-7-|
 A--7---7-7------4---4-4------4---4-4------5---5-5-|
 E--5---5-5-------------------2---2-2--------------|

Chorus

 e-----------------------------------------------------------|
 B-----------------------------------------------------------|
 G--2--4--6--6--4------4--6--6--4--2--4--6--6--6--7-7-7-7--9-|
 D--2--4--6--6--4---6--4--6--6--4--2--4--6--6--6--7-7-7-7--9-|
 A--0--2--4--4--2---6--2--4--4--2--0--2--4--4--4--5-5-5-5--7-|
 E------------------4----------------------------------------|


15. Quart in session

Intro
e|-----------------------------------------|
B|-----------------------------------------|
G|----------------5555---------------------|
D|-5555-4444-2222-5555-555555555555555-----|
A|-5555-4444-2222-3333-555555555555555-----|
E|-3333-2222-0000------333333333333333-----|

Verse
e|-----------------------------------------|
B|-----------------------------------------|
G|------5555----------------5555------7777-|
D|-5555-5555-5555-7777-2222-5555-5555-7777-| X2
A|-5555-3333-5555-7777-2222-3333-5555-5555-|
E|-3333------3333-5555-0000------3333------|
pm .... .... .... .... .... .... .... ....

Chorus                                            Play on last time
e|----------------------------------------|     |-3-3-3-3--15-15-15-15-|
B|----------------------------------------|     |----------------------|
G|----------------5555--------------------|     |----------------------|
D|-5555-4444-2222-5555-555555555555555----|     |----------------------|
A|-5555-4444-2222-3333-555555555555555----|     |----------------------|
E|-3333-2222-0000------333333333333333----|     |----------------------|
                                                  Play on last time
e|----------------------------------------|    |-3-3-3-3--15-15-15-15------|
B|----------------------------------------|    |---------------------------|
G|-2222-5555------------------------------|    |---------------------------|
D|-2222-5555-55555555555555555------------| x2    |------------------------|
A|-0000-3333-55555555555555555------------|    |---------------------------|
E|-----------33333333333333333------------|    |---------------------------|

e|---------------------------|
B|---------------------------|
G|-88888888-1010101010101010-|
D|-88888888-1010101010101010-|
A|-66666666-8 8 8 8 8 8 8 8--|
E|---------------------------|

Bridge
e|---------------------|
B|---------------------|
G|----------------5555-|
D|-5555-4444-2222-5555-| x4
A|-5555-4444-2222-3333-|
E|-3333-2222-0000------|
pm .... .... .... ....

e|-----------------------------------------|
B|-----------------------------------------|
G|----------------5555---------------------|
D|-5555-4444-2222-5555-555555555555555-----| x4
A|-5555-4444-2222-3333-555555555555555-----|
E|-3333-2222-0000------333333333333333-----|

e|--------------------|
B|--------------------|
G|------5555----------|
D|-5555-5555-5555-----|
A|-5555-3333-5555-----|
E|-3333------3333-----|
pm .... .... ....

Finish on
e|-3-3-3-3-15-15-15-15-|
B|---------------------|
G|---------------------|
D|---------------------|
A|---------------------|
E|---------------------|

16. Falling in love

Clean tone intro

e--------------------------------------------------------|
b--------------------------------------------------------|
g--------------------------------------------------------|
d-5-5-4--5-5-4--5-5-4--5-5-5--5-5-4--5-5-4--5-5-4--5-5-5-|
a-5-5-5--5-5-5--5-5-5--5-5-5--5-5-5--5-5-5--5-5-5--5-5-5-|
e--------------------------------------------------------|

e-----------------------------------------------------------|
b-----------------------------------------------------------|
g-----------------------------------------------------------|
d-5-5-4--5-5-4--5-5-4--5-5-5--5-5-4--5-5-7--9-9-4-5-7-5-5-5-|
a-5-5-5--5-5-5--5-5-5--5-5-5--5-5-5--5-5-5--7-7-5-5-5-5-5-5-|
e-----------------------------------------------------------|

Distortion part (nearly same as intro)

Guitar 1

e--------------------------------------------------------|
b--------------------------------------------------------|
g--------------------------------------------------------|
d-5-5-4--5-5-4--5-5-4--5-5-5--5-5-4--5-5-4--5-5-4--5-5-5-|
a-5-5-5--5-5-5--5-5-5--5-5-5--5-5-5--5-5-5--5-5-5--5-5-5-|
e--------------------------------------------------------|

e-----------------------------------------------------------|
b-----------------------------------------------------------|
g-----------------------------------------------------------|
d-5-5-4--5-5-4--5-5-4--5-5-5--5-5-4--5-5-7--9-9-4-5-7-5-5-5-|
a-5-5-5--5-5-5--5-5-5--5-5-5--5-5-5--5-5-5--7-7-5-5-5-5-5-5-|
e-----------------------------------------------------------|

Guitar 2

e--------------------------------------------------------------------|
b--------------------------------------------------------------------|
g-12-12-12--9-9-7--5-5-7----------12-12-12--12-12-14--16-16-12-12-12-|
d-12-12-12--9-9-7--5-5-7--5-5-5---12-12-12--12-12-14--16-16-12-12-12-|
a-10-10--9--7-7-5--3-3-5--5-5-5---10-10--9--10-10-12--14-14--9--9--9-|
e-------------------------3-3-3--------------------------------------|

e----------|
b----------|
g--let ring
d-5>>>>>>>>   Verse starts
a-5>>>>>>>>
e-3>>>>>>>>

Verse (blast oxygen masks, smoked filled cabin)

(bass plays all)

Bridge

guitar 1

e------------------------------------------------------------------------|
b------------------------------------------------------------------------|
g-12-12-12-12-12-1212-15-14-10-10-10-10-10-10-10-10-10-10-10-10-10-10-10-|
d---------------------------------------------10-10-10-10-10-10-10-10-10-|
a-10-10-10-10-10-1010-13-12-8-8-8-8-8-8-8-8-8-8--8--8--8--8--8--8--8--8--|
e------------------------------------------------------------------------|

guitar 1 (continued)

e--------------------------------------------------------------|
b--------------------------------------------------------------|
g-8-8-8-88-7-7-7-77-8-8-8-8-8-88-12-12-10-10-10-10-10-10-10-10-|
d--------------------------------------------------------------|
a-6-6-6-66-5-5-5-55-6-6-6-6-6-66-10-10-8--8--8--8--8--8--8--8--|
e--------------------------------------------------------------|

guitar 1 (continued)

e------------------|
b------------------|
g-8-8-8-8-8-8-8-88-|
d-8-8-8-8-8-8-8-88-|
a-6-6-6-6-6-6-6-66-|
e------------------|

guitar 2(listen 2 song to strum chords to thr rhythm of the song)

e------------------------------------------|
b------------------------------------------|
g----------------5----8---------------8----|
d-5----8----3----5----8----8----10----8----|
a-5----8----3----3----6----8----10----6----|
e-3----6----1--------------6----8----------|

Verse (guitar played this time) Listen to the song and strum each chord until it changes.

e---------------------------------------|
b---------------------------------------|
g-----------10----5----8---------5----8-|
d-5----8----10----5----8----8----5----8-|
a-5----8----8-----3----6----8----3----6-|
e-3----6--------------------6-----------|

End (keep playin this note throughout the last bit of the song, i think there is only 1
played on this part)

                                          End on this

e----------------------------------      e------------|
b----------------------------------      b-4----------|let-ring
g-3-3-3-3-3-3-3-3-3-3-3-3-3-3-3-etc      g------------|
d----------------------------------      d------------|
a----------------------------------      a------------|
e----------------------------------      e------------|


I give credit to all people
who have the same or similar tabs.
But plz don't be mad
Добавлено: 09.06.2012
Другие материалы по этой песне:
  • Аккорды и текст

Страница создана 09.06.2012
http://primanota.ru/nofx/so-long-and-thanks-for-all-the-shoes-album-chords.htm
Привет, Гость.
Предлагаем пройти революционный курс по гитаре.
Подарок от PrimaNota.Ru, забирай!