PrimaNota.ru - самый крупный в мире бесплатный архив песенных текстов, аккордов, табулатур и нот


Nofx - Ska Sucks - бас-таба, видео

Регистрация Запомнить меня
Войти через:  Facebook Google Twitter Vk Yandex Mail.ru

Nofx - Ska Sucks - бас-таба, видео

Печатать
Просмотров: 104
 / Slide

                    3X
G---------------------|
D----4--4/5-----------|
A-555-55------2----4--|
E-----------33-3-55-5-|

G------------------|
D----4--4/5--------|
A-555-55------2----|
E-----------33-3-5-|

G---------------------|
D--457--457-----------|
A-5----5------2--5457-|
E-----------33-3------|

G------------------|
D--457--457--------|
A-5----5------2----|
E-----------33-3-5-|

                    8X
G---------------------|
D--457--457-----------|
A-5----5------2--5457-|
E-----------33-2------|
                               3X
G------------------------I-------I-------------------------------|
D------------------------I---4-7-I------------457--457-----------|
A-5--5--5--5-------------I-5-----I---2--5457-5----5------2--5457-|
E------------333-3/5-5-5-I-------I-33-3----------------33-3------|

                   3X                                  2X     repeat till finish
G-I------------------I-----------------I-----------------I-----------------------|I
D-I-------457--------I-------457-------I-------457-------I-------457-------------|I
A-I-55-55------------I-55-55-----------I-55-55-----------I-55-55-------2---------|I
E-I-----------33-535-I-----------3-3-5-I-----------33-55-I-----------33-3-53557--|I

finish
G-----------|
D-----------|
A---------5-|
E-555-333---|

i play this way.. im not 100% sure about the final parts but it sounds good enough i guess
  xxSID
Добавлено: 02.04.2012
Другие материалы по этой песне:
  • Аккорды и текст

Страница создана 02.04.2012
http://primanota.ru/nofx/ska-sucks-chords.htm
Привет, Гость.
Предлагаем пройти революционный курс по гитаре.
Подарок от PrimaNota.Ru, забирай!