PrimaNota.ru - самый крупный в мире бесплатный архив песенных текстов, аккордов, табулатур и нот


Nofx - Scream For Change - бас-таба, видео

Регистрация Запомнить меня
Войти через:  Facebook Google Twitter Vk Yandex Mail.ru

Nofx - Scream For Change - бас-таба, видео

Печатать
Просмотров: 93
NoFx Scream for Change
Intro

E |---------------------------------------------------------------------|
B |---------------------------------------------------------------------|  Not exact
G |---------------------------------------------------------------------|  Close enough
D |---------------------------------------------------------------------|
A |--------—-—-----2--5--5—-5—-5-----------------------------2----------|
E |-0--0--0--0--0-----------------5--8—-8—-8—-8--8--7—-7--7-----2--3--0-|


E |------------------------------------------------------------|
B |------------------------------------------------------------|
G |------------------------------------------------------------|
D |------------------------------------------------------------| x A Few
A |----7--7--7--5-5--------------------------2-----------------|
E |-0----------------8--8--8—-8--8--7--7--7-----2--3--0--------|


E |-------------------------------------------------------------|
B |-------------------------------------------------------------|
G |-------------------------------------------------------------| x 1 Before Verse
D |-------------------------------------------------------------|
A |----7--7--7—-5--5--------------------------10--9--7----------|
E |-0-----------------8--8--8—-8--8--7--7--7--------------------|

Verse

E |------------------------------------------------------|
B |------------------------------------------------------|
G |------------------------------------------------------|
D |------------------------------------------------------|
A |--------------------------1--1--1--1------------------|
E |--0--0--0--0--3--3--3--3--------------1--1--1--1------|

Chorus

E |-------------------------------------------------------|
B |-------------------------------------------------------|  Listen to song
G |-------------------------------------------------------|  for rythmn
D |-------------------------------------------------------|
A |--------------------3--3--3--3--3-x2-------------------|
E |--0--0--0--0--0—x4--------------------7--7--7--7--7----|x2


Al the parts needed for the song are above, I can't be bothered to put the order it's
to follow……… it's not perfect, for example the intro is simplified but you can add to it
you manage to figure it out, but it's basically correct.
Добавлено: 23.06.2012
Другие материалы по этой песне:
  • Аккорды и текст

Страница создана 23.06.2012
http://primanota.ru/nofx/scream-for-change-chords.htm
Привет, Гость.
Предлагаем пройти революционный курс по гитаре.
Подарок от PrimaNota.Ru, забирай!