PrimaNota.ru - самый крупный в мире бесплатный архив песенных текстов, аккордов, табулатур и нот


Nofx - Scavenger Type Live - таба, видео

Регистрация Запомнить меня
Войти через:  Facebook Google Twitter Vk Yandex Mail.ru

Nofx - Scavenger Type Live - таба, видео

Печатать
Просмотров: 108
                            Scavenger Type
          By NOFX as heard on They've Actually Gotten Worse Live!

Tuning: Standard
                                                                            
  Intro: Gtr. 1  El Hefe: *growls* 
e |------------------------------------------------------------------------|
B |------------------------------------------------------------------------|
G |---7-----------------------77777777777666666666665555555555555555555555-|
D |-7-7-7---------------------55555555555555555555555555555555555555555555-|
A |-7-5-7------------------------------------------------------------------|
E |-5---5------------------------------------------------------------------|

    Gtr. 1
e |-------------------------------------------------|
B |-------------------------------------------------|
G |-------------44444444444-------------55555555555-|
D |-55555555555-44444444444-22222222222-55555555555-|
A |-55555555555-22222222222-22222222222-33333333333-|
E |-33333333333-------------00000000000-------------|
  |
  | Gtr.2                                           pick scrape
e |--------------------------------------------------------------------|
B |--------------------------------------------------------------------|
G |------------------------------------------------->>>>>>>>>>>>>>>>>>-|
D |------------------------------------------------->>>>>>>>>>>>>>>>>>-|
A |------------------------------------------------->>>>>>>>>>>>>>>>>>-|
E |------------------------------------------------->>>>>>>>>>>>>>>>>>-|

    Gtr. 1 and 2
e |-------------------------------------------------|
B |-------------------------------------------------|
G |-------------44444444444-------------55555555555-|
D |-55555555555-44444444444-22222222222-55555555555-|
A |-55555555555-22222222222-22222222222-33333333333-|
E |-33333333333-------------00000000000-------------|

    Gtr. 1
e |----------------------------------------------|
B |----------------------------------------------|
G |-77777777777666666666665555555555555555555555-|
D |-55555555555555555555555555555555555555555555-|
A |----------------------------------------------|
E |----------------------------------------------|
  |
  | Gtr.2                                        pick scrape
e |-----------------------------------------------------------------|
B |-----------------------------------------------------------------|
G |---------------------------------------------->>>>>>>>>>>>>>>>>>-|
D |---------------------------------------------->>>>>>>>>>>>>>>>>>-|
A |---------------------------------------------->>>>>>>>>>>>>>>>>>-|
E |---------------------------------------------->>>>>>>>>>>>>>>>>>-|

    Gtr. 1 and 2
e |---------------------------------------------|
B |---------------------------------------------|
G |-9999999999-8888888888-7777777777-6666666666-|
D |-9999999999-9999999999-7777777777-7777777777-|
A |-7777777777-6666666666-5555555555-4444444444-|
E |---------------------------------------------|

    Gtr. 1 and 2
e |-------------------------------------------------|
B |-------------------------------------------------|
G |-------------44444444444-------------55555555555-|
D |-55555555555-44444444444-22222222222-55555555555-|
A |-55555555555-22222222222-22222222222-33333333333-|
E |-33333333333-------------00000000000-------------|
  
    Gtr. 1
e |-------------------|
B |---------8-------8-|
G |-7---7-6-----6-5---|
D |-5-5---7---7---5---|
A |-------------------|
E |-------------------|
  |
  | Gtr.2                pick scrape
e |--------------------------------------|
B |--------------------------------------|
G |------------------->>>>>>>>>>>>>>>>>>-|
D |------------------->>>>>>>>>>>>>>>>>>-|
A |------------------->>>>>>>>>>>>>>>>>>-|
E |------------------->>>>>>>>>>>>>>>>>>-|

    Gtr. 1 and 2
e |---------------------------------------------|
B |---------------------------------------------|
G |-9999999999-8888888888-7777777777-6666666666-|
D |-9999999999-9999999999-7777777777-7777777777-|
A |-7777777777-6666666666-5555555555-4444444444-|
E |---------------------------------------------|

    Gtr. 1 and 2
e |-------------------------------------------------|
B |-------------------------------------------------|
G |-------------44444444444-------------55555555555-|
D |-55555555555-44444444444-22222222222-55555555555-|
A |-55555555555-22222222222-22222222222-33333333333-|
E |-33333333333-------------00000000000-------------|
  
    Gtr. 1
e |-------------------|
B |---------8-------8-|
G |-7---7-6-----6-5---|
D |-5-5---7---7---5---|
A |-------------------|
E |-------------------|
  |
  |  Gtr.2                pick scrape
e |--------------------------------------|
B |--------------------------------------|
G |------------------->>>>>>>>>>>>>>>>>>-|
D |------------------->>>>>>>>>>>>>>>>>>-|
A |------------------->>>>>>>>>>>>>>>>>>-|
E |------------------->>>>>>>>>>>>>>>>>>-|
    
    Gtr. 1  * keep note bent and pick
e |-----------------------------7~~-10----------10^(12)-10-7-8-10-8-7-8~~-|
B |------------------------8-10--------12-10------------------------------|
G |-2^***2^-2~~-0-2-4-0----------------------12---------------------------|
D |---------------------2~------------------------------------------------|
A |-----------------------------------------------------------------------|
E |-----------------------------------------------------------------------|
  |
  | Gtr. 2
e |------------------------------------------------------------------------|
B |------------------------------------------------------------------------|
G |-9-----------8-------7----------6-----------------4---------------------|
D |-9-----------9-------7----------7--------5--------4---------2-------5---|
A |-7-----------6-------5----------4--------5--------2---------2-------5---|
E |-----------------------------------------3------------------0-------3---|

Gtr. 1                         "Yeah! Wooooo!"
e |---------------------------|
B |---------8-------8---------|
G |-7---7-6-----6-5------5----|
D |-5-5---7---7---5------5----|
A |---------------------------|
E |---------------------------|

Pretty simple song. I like it. Enjoy.

                                  Key

                      >  Scratch pick along strings
                      ^  Bend up
                      ~  Vibrato







Добавлено: 16.05.2012
Другие материалы по этой песне:
  • Аккорды и текст

Страница создана 16.05.2012
http://primanota.ru/nofx/scavenger-type-live-chords.htm
Привет, Гость.
Предлагаем пройти революционный курс по гитаре.
Подарок от PrimaNota.Ru, забирай!