PrimaNota.ru - самый крупный в мире бесплатный архив песенных текстов, аккордов, табулатур и нот


Nofx - Pimps And Hookers - текст песни, бас-таба, видео

Регистрация Запомнить меня
Войти через:  Facebook Google Twitter Vk Yandex Mail.ru

Nofx - Pimps And Hookers - текст песни, бас-таба, видео

Печатать
Просмотров: 159
Уроки эстрадного вокала в Санкт-Петербурге
+++++++++++++++++++++++++++
| NOFX- Pimps And Hookers |
+++++++++++++++++++++++++++


"Whether it be blue or white, its still around your neck..."


Tuning: Standard EADG


Intro
1.
G|-------------------------------------|
D|-------------------------------------|
A|-------------------------------------|
E|-33333333-33333333-33333333-33333333-|

2.
G|-------------------------------------------------------------------------|
D|-------------------------------------------------------------------------|
A|---------------333---------------333---------------333---------------333-|
E|-33333333-11111----33333333-11111----33333333-11111----33333333-11111----|

Verse
"Give it up for working stiffs..."
3.
G|-------------------------------------------------------------------------|
D|-------------------------------------------------------------------------|
A|--------------3333---------------333--------------3333---------------333-|
E|-33333333-1111-----33333333-11111----33333333-1111-----33333333-11111----|

"Lets give a cheer..."
4.
G|-------------------------------------------------------|
D|-------------------------------------------------------|
A|-33333333-55555555---------------333-33333333-55555555-|
E|-------------------33333333-11111----------------------|

Chorus
"Starts to resound..."
5.
G|--------------------------------------------------------------------------|
D|-------------------335~-5-555555555555-5555-----------5555-5555-----------|
A|--------------------------------------------1111-3333-----------1111-3333-|
E|-3\-----------------------------------------------------------------------|

Outro
6.
G|-------------------------------------------------------------|
D|---------------------------------------3h5-3h5-3h5-3h5-3h5-3-|
A|-5x----------------------------------------------------------|
E|-------------------------------------------------------------|

Verse
"Of course someone asks..."
7.
G|--------------------------------------------------------------------------------|
D|------------------------------------------------------------------3h5-3h5-3h5-3-|
A|--------------3333---------------333--------------3333--------------------------|
E|-33333333-1111-----33333333-11111----33333333-1111-----3~-----------------------|

"Loyal americans who love their collar colored..."
8.
G|-----------------------------------------------------|
D|-----------------------------------------------------|
A|-33333333-55555555-----------------33333333-55555555-|
E|-------------------3-3-3-3-3-3-3-3-------------------|

Chorus
"Whether it be blue or white..."
9.
G|-------------------12-12-10-10-12-10------------------------------------------------------|
D|-------------------------------------10-10-12-12-10-10-5555-----------5555-5555-----------|
A|------------------------------------------------------------1111-3333-----------1111-3333-|
E|-3\---------------------------------------------------------------------------------------|

Outro
10.
G|----------------------------------------------------|
D|----------------------------------------------------|
A|----------------------------------------------------|
E|-3~--------------------------------3~---------------|

"You're a hooker..."
11.
G|-------------------------------------|
D|-------------------------------------|
A|---------------333---------------333-|
E|-33333333-11111----33333333-11111----|

Bridge
"Start to realize its true..."
12.
G|-----------------------33-355-533-3-------------------------------------|
D|-------------------55-5-------------11111111-33333333-------------------|
A|-11111111-33333333------------------------------------11111111-11111111-|
E|------------------------------------------------------------------------|

"Pimps and prostitutes..."
13.
G|-------------------------------------------------------------------------|
D|----------11111111----------------------------88888888----------88888888-|
A|-------------------------------------66666666----------66666666----------|
E|-33333333----------11111111-33333333-------------------------------------|

"Pimps and wall street hoes..."
14.
G|-------------------------------------------------------------------------|
D|----------11111111----------------------------88888888-------------------|
A|-------------------------------------66666666----------66666666-88888888-|
E|-33333333----------11111111-33333333-------------------------------------|

Outro
15.
G|------------------------------------|
D|-55555555-55555555-55555555-3-3-5~--|
A|------------------------------------|
E|------------------------------------|


Thank you please rate!


Lyrics:

Give it up for workin stiffs
And those who sell their bodies,time and future
The popular people who can shout and spread
A catchy rationalization
Lets give a cheer for androids, robots,
Servants and their masters
"Blind leading the blind" and "slavery is freedom"

Starts to resound 
Everyone knew madison
She came to hollywood 
A couple buttons short
Couldnt keep her story straight 
She had a drawer full of poisons, 
Punctures, pictures of victims

Of course someone asks are they still victims if
they never realize it? go ask a PA minor
Breathing blackness smoking 3 pack camels
Loyal americans who love their collar colored
For 40 hours a spade is still a spade, a collar is still 
a collar 

Whether it be blue or white
Its still around your neck, the silk leash nice and tight
Your wife helped pick it out the irony is
That your worked 3 hours for it you wish you
Could ignore it

you're a hooker
Start to realize its true
They sniff their coke you huff your glue 
Pimps and prostitutes
Buisnessmen in monkey suits 
On their knees
Licking corporate boots 
Suckin up jumping through hoops 
Pimps and wall street ho's
Work the street in business clothes
Blows jobs, rimming, sucking cock,
They're getting laid while you're getting laid off.



+++++++++++++++++++++++++++++++++
| RaiLeff                       |
| Underground__Dora@Hotmail.Com |
+++++++++++++++++++++++++++++++++
Добавлено: 14.05.2012
Другие материалы по этой песне:

Страница создана 07.04.2012
http://primanota.ru/nofx/pimps-and-hookers-chords.htm
Привет, Гость.
Предлагаем пройти революционный курс по гитаре.
Подарок от PrimaNota.Ru, забирай!