PrimaNota.ru - самый крупный в мире бесплатный архив песенных текстов, аккордов, табулатур и нот


Nofx - Pharmacist Daughter - таба, видео

Регистрация Запомнить меня
Войти через:  Facebook Google Twitter Vk Yandex Mail.ru

Nofx - Pharmacist Daughter - таба, видео

Печатать
Просмотров: 108
PHARMACIST DAUGHTER - NOFX

By:NORM EVANS

THIS SONG IS AWESOME!!!!!! YELLOW NIGHT RULES

play 4 times
e|----------------------------------------------------------------------------|
B|----------------------------------------------------------------------------|
G|-------7--12--12--12--9-----------------------------------------------------|
D|-2--5--7--12--12--12--9-----------------------------------------------------|
A|-2--5--5--10--10--10--7-----------------------------------------------------|
E|-0--3-----------------------------------------------------------------------|

            *-palm mute
e|----------------------------------------------------------------------------|
B|----------------------------------------------------------------------------|
G|-------7*-12--12--12--9------x2---------------------------------------------|
D|-2*-5*-7--12--12--12--9-----------------------------------------------------|
A|-2--5--5--10--10--10--7-----------------------------------------------------|
E|-0--3-----------------------------------------------------------------------|

e|----------------------------------------------------------------------------|
B|-----7-------7--------------------------------------------------------------|
G|---5-7-7-9-5-7-5------------------------------------------------------------|
D|---5-5-7-9-5-5-5------------------------------------------------------------|
A|---3---5-7-3---3------------------------------------------------------------|
E|----------------------------------------------------------------------------|

e|----------------------------------------------------------------------------|
B|----------------------------------------------------------------------------|
G|-------7--12--12--12--9-----------------------------------------------------|
D|-2--5--7--12--12--12--9-----------------------------------------------------|
A|-2--5--5--10--10--10--7-----------------------------------------------------|
E|-0--3-----------------------------------------------------------------------|

           *-palm mute
e|----------------------------------------------------------------------------|
B|----------------------------------------------------------------------------|
G|-------7*-12--12--12--9------x2---------------------------------------------|
D|-2*-5*-7--12--12--12--9-----------------------------------------------------|
A|-2--5--5--10--10--10--7-----------------------------------------------------|
E|-0--3-----------------------------------------------------------------------|

e|----------------------------------------------------------------------------|
B|-----7-------7--------------------------------------------------------------|
G|---5-7-7-9-5-7-5------------------------------------------------------------|
D|---5-5-7-9-5-5-5------------------------------------------------------------|
A|---3---5-7-3---3------------------------------------------------------------|
E|----------------------------------------------------------------------------|

e|----------------------------------------------------------------------------|
B|----------------------------------------------------------------------------|
G|-------7--12--12--12--9-----------------------------------------------------|
D|-2--5--7--12--12--12--9-----------------------------------------------------|
A|-2--5--5--10--10--10--7-----------------------------------------------------|
E|-0--3-----------------------------------------------------------------------|

Solo:
e|--12---12--12----12--12----12--12----12-----------------------------------------------|
B|--15^------15^-------15^-------15^--------15^----15p12---15p12-------12---------------|
G|-----------------------------------------------------------------15------15-14-12-14--|
D|--------------------------------------------------------------------------------------|
A|--------------------------------------------------------------------------------------|
E|--------------------------------------------------------------------------------------|

e|---------------------------------------------------------------------------|
B|--12-12-12-----------------------------------------------------------------|
G|--12-12-12-------------2^(2-2-2-2-2)-2p0----0--------0---------------------|
D|---------------14---------------------------------2----2p0----2p0--2-------|
A|---------------------------------------------------------------------------|
E|---------------------------------------------------------------------------|

e|-------10------------------------------------------------------------------|
B|--10^-------10^------------------------------------------------------------|
G|-----------------12p9--12--12^-12-12^---->12-->12--------------------------|
D|-----------------------------------------------------14-12-14--------------|
A|---------------------------------------------------------------------------|
E|---------------------------------------------------------------------------|

e|----------------------------------------------------------------------------|
B|-------------------------------------------------13-12-10-12----------------|
G|--12------------------------------11------12--------------------14-12-11-12-|
D|------14--12--14--11--13------10--------------------------------------------|
A|----------------------------------------------------------------------------|
E|----------------------------------------------------------------------------|

e|---------------------------------------------------------------------------|
B|---------------------------------------------------------------------------|
G|-------7--12--12--12--9----------------------------------------------------|
D|-2--5--7--12--12--12--9----------------------------------------------------|
A|-2--5--5--10--10--10--7----------------------------------------------------|
E|-0--3----------------------------------------------------------------------|

e|---------------------------------------------------------------------------|
B|---------------------------------------------------------------------------|
G|-------7--12--12--12-9-----------------------------------------------------|
D|-2--5--7--12--12--12-9-----------------------------------------------------|
A|-2--5--5--10--10--10-7-----------------------------------------------------|
E|-0--3----------------------------------------------------------------------|

e|---------------------------------------------------------------------------|
B|---------------------------------------------------------------------------|
G|-------7--12--12--12-9-----------------------------------------------------|
D|-2--5--7--12--12--12--9----------------------------------------------------|
A|-2--5--5--10--10--10--7----------------------------------------------------|
E|-0--3----------------------------------------------------------------------|

The solo is 100% correct its pretty easy just practice it. YELLOW NIGHT RULES
Добавлено: 01.04.2012
Другие материалы по этой песне:
  • Аккорды и текст

Страница создана 01.04.2012
http://primanota.ru/nofx/pharmacist-daughter-chords.htm
Привет, Гость.
Предлагаем пройти революционный курс по гитаре.
Подарок от PrimaNota.Ru, забирай!