PrimaNota.ru - самый крупный в мире бесплатный архив песенных текстов, аккордов, табулатур и нот


Nofx - Olympia Wa - текст песни, бас-таба, видео

Регистрация Запомнить меня
Войти через:  Facebook Google Twitter Vk Yandex Mail.ru

Nofx - Olympia Wa - текст песни, бас-таба, видео

Печатать
Просмотров: 182
Авторы: Lars Frederiksen, Tim Armstrong, Matt Freeman

I'm almost done tabbing the NOFX part of the album, After this i will do the rest of the 
ones, Anyways heres olympia WA

Intro
------------------------/-----------------------/------------------------|
------------------------/-----------------------/------------------------|
-3-33-5-55-----3-33-333-/3-33-5-55-----3-33-333-/3-33-5-55-----3-33-333--|
-----------3-3----------/----------3-3----------/----------3-3-----------|

--------------------------|
---------------0-00-000---|
-3-33-2-22-0-0------------|     Reapeat the whole intro
--------------------------|

Verse
---------------------------------------------------------------------------|
---------------------------------------------------------------------------|
-------------------3-3333333333333333-------------------5-5555555555555555-|
-3-333333333333333--------------------3-3333333333333333-------------------|

----------------------------------------------------------------------------|
----------------------------------------------------------------------------|
-------------------3-3333333333333333--------------5-5555555----------------|
-3-333333333333333----------------------3-33333333-----------3-3333333/12\3-|

Chorus
-----------------------------------------------------------------|
-----------------------------------------------------------------|
-333333333333333-555555555555555---------------------------------|
---------------------------------333333333333333333333333333333--|

Bridge
---------------------------------------|
-5--4--2~~~~---------------------------|
-------------3333-----5555555555555555-|
------------------3-3------------------|

Solo
--------------------------------------------------------------------|
--------------------------------------------------------------------|
-----------------3-3-3333333333333-----------------5-5-555555555555-|
-3-3-333333333333------------------3-3-333333333333-----------------|

--------------------------------------------------------------------|
--------------------------------------------------------------------|
---------------2-2-22222-22-222-------------------3-3-33333-33-333--|
-3-3-3333333333-----------------0-0-0000-0-00-000-----------------3-|

Oder is very easy, this is definatly a begginers song.. unless you want to sing with it, 
not very fun to play
Добавлено: 12.05.2012
Другие материалы по этой песне:

Страница создана 27.04.2012
http://primanota.ru/nofx/olympia-wa-chords.htm
Привет, Гость.
Предлагаем пройти революционный курс по гитаре.
Подарок от PrimaNota.Ru, забирай!