PrimaNota.ru - самый крупный в мире бесплатный архив песенных текстов, аккордов, табулатур и нот


Nofx - Instant Crassic - текст песни, таба, видео

Регистрация Запомнить меня
Войти через:  Facebook Google Twitter Vk Yandex Mail.ru

Nofx - Instant Crassic - текст песни, таба, видео

Печатать
Просмотров: 160
-------------------------------------------------------------------------------
                             instant crassic - NOFX
-------------------------------------------------------------------------------
Tabbed by: kyle
Email: greenspring_dayoff@hotmail.com

intro (also the kinda-basic rhythm to the song, but you're better off listening to it to 
out if you cant manage to recall in your head)
e|---------------------------------------------------------------------------|
B|---------------------------------------------------------------------------|
G|--12-12---12121212--repeat for however long--------------------------------|
D|--12-12---12121212---------------------------------------------------------|
A|--10-10---10101010---------------------------------------------------------|
E|---------------------------------------------------------------------------|
every verse
e|---------------------------------------------------------------------------|
B|-----------------12--------------------------------------------------------|
G|-12--11-9--------12--------------------------------------------------------|
D|-12--11-9--------10--------------------------------------------------------|
A|-10--9--7--10-10-----------------------------------------------------------|
E|-----------8--8------------------------------------------------------------|
outro (i guess this works)
e|---------------------------------------------------------------------------|
B|---------------------------------------------------------------------------|
G|----------5----------------------------------------------------------------|
D|-5--4--2--5----------------------------------------------------------------|
A|-5--4--2--3----------------------------------------------------------------|
E|-3--2--0-------------------------------------------------------------------|

and like the geniuses they are, they cut it off right there.  i personally love it.  
another of my favorite nofx songs.  guess that's all to this wonderful song.  love, kyle of 
forget.  www.iforget.tk
Добавлено: 30.04.2012
Другие материалы по этой песне:

Страница создана 30.04.2012
http://primanota.ru/nofx/instant-crassic-chords.htm
Привет, Гость.
Предлагаем пройти революционный курс по гитаре.
Подарок от PrimaNota.Ru, забирай!