PrimaNota.ru - самый крупный в мире бесплатный архив песенных текстов, аккордов, табулатур и нот


Nofx - Im Going To Hell For This One - таба, бас-таба, видео

Регистрация Запомнить меня
Войти через:  Facebook Google Twitter Vk Yandex Mail.ru

Nofx - Im Going To Hell For This One - таба, бас-таба, видео

Печатать
Просмотров: 218
Уроки эстрадного вокала в Санкт-Петербурге
VERSE: (after bass intro)

guitar 1:

e-3-------2-------0-------2-------|
b-3-------2-------1-------0-------|
g-0-------4-------0-------0-------|
d-0-------4-------2-------0-------|
a-2-------2-------3-------2-------|
e-3-----------------------3-------| x2

guitar 2:

e---------------------------------|
b---------------------------------|
g---------4-------5---7-5---------|
d-5-------4-------5---x-x-5-------|
a-5-------2-------3---5-3-5-------|
e-3-----------------------3-------| x2

CHORUS:

both guitars:

e-----------------------------------------|
b-----------------------------------------|
g-9-------5-------7-----------------------|
d-7-------5-------7-------5-------4-------|
a-7-x8----3-x8----5-x8----5-x4----4-x4----|
e-------------------------3-------2-------| x2

VERSE:

guitar 1 (after bass has played 1st bar)

*palm muted*

e-333333333333333333333333333333333333333333333333-----------------|
b-555555554444444433333333222222221111111111111111-----------------|
g-------------------------------------------------000000000000000--|
d------------------------------------------------------------------|
a------------------------------------------------------------------|
e------------------------------------------------------------------| x1


guitar 1:

e-3-------2-------0-------2-------|
b-3-------2-------1-------0-------|
g-0-------4-------0-------0-------|
d-0-------4-------2-------0-------|
a-2-------2-------3-------2-------|
e-3-----------------------3-------| x2

guitar 2:

e---------------------------------|
b---------------------------------|
g---------4-------5---7-5---------|
d-5-------4-------5---x-x-5-------|
a-5-------2-------3---5-3-5-------|
e-3-----------------------3-------| x2

CHORUS:

both guitars:

e-----------------------------------------|
b-----------------------------------------|
g-9-------5-------7-----------------------|
d-7-------5-------7-------5-------4-------|
a-7-x8----3-x8----5-x8----5-x4----4-x4----|
e-------------------------3-------2-------| x2

2ND CHORUS:

both guitars:

e------------------------------------|
b------------------------------------|
g-5-------7-------9-------9----------|
d-5-------7-------9-------9----------|
a-3-x8----5-x8----6-x8----7-x8-------|
e------------------------------------| x1

e----------------------------------------|
b----------------------------------------|
g-5-------7-------9-------5-------12-----|
d-5-------7-------9-------5-------12-----|
a-3-x8----5-x8----6-x8----3-x4----10-x4--| x1
e----------------------------------------|

e------------------------------------|
b------------------------------------|
g-5-------7-------9-------9----------|
d-5-------7-------9-------9----------|
a-3-x8----5-x8----6-x8----7-x8-------|
e------------------------------------| x1

e-------------------------|
b-------------------------|
g-5-------7---------------|
d-5-------7-------5~------|
a-3-x8----5-x8----5~------| END
e-----------------3~------|

thats it, nice and easy. please rate!
Добавлено: 18.06.2012
Другие материалы по этой песне:

Страница создана 02.04.2012
http://primanota.ru/nofx/im-going-to-hell-for-this-one-chords.htm
Привет, Гость.
Предлагаем пройти революционный курс по гитаре.
Подарок от PrimaNota.Ru, забирай!