PrimaNota.ru - самый крупный в мире бесплатный архив песенных текстов, аккордов, табулатур и нот


Nofx - Idiot Son Of An Asshole - текст песни, таба, бас-таба, видео

Регистрация Запомнить меня
Войти через:  Facebook Google Twitter Vk Yandex Mail.ru

Nofx - Idiot Son Of An Asshole - текст песни, таба, бас-таба, видео

Печатать
Просмотров: 155
% pause


Verse 1 is just bass

Pre chorus
e|--------------------------------------------------------|
B|--------------------------------------------------------|
G|-5~-----5~-----5~---------------------------------------|
D|-5~-----5~-----5~---------------------------------------|
A|-3~-----3~-----3~---------------------------------------|
E|--------------------------------------------------------|


chorus
e|--------------------------------------------------------|
B|--------------------------------------------------------|
G|---12--12--12--12---------------2--2--2--2--7--7--7--7--|
D|---12--12--12--12--12-12-12-12--2--2--2--2--7--7--7--7--|
A|---10--10--10--10--9--9--9--9---0--0--0--0--5--5--5--5--|
E|--------------------------------------------------------|
"The idiot son of an asshole..." (Repeat twice)


The solo bit
e|--------3~-------2~-------------------------------------|
B|--3-2-3----3-2-3----3-2-3-5~--3-2-3-5s8-----------------|
G|--------------------------------------------------------|
D|--------------------------------------------------------|
A|--------------------------------------------------------|
E|--------------------------------------------------------|


***Play everything in verse2 CLEAN. No distortion until
pre chorus***


Verse 2 Part 1&2 (Guitar A, Palm mute)
e|--------------------------------------------------------|
B|--------------------------------------------------------|
G|--------------------------------------------------------|
D|--12-12-12-12-12-12-12-12--9--9--9--9--5--5--7--7-------|
A|--10-10-10-10--9--9--9--9--7--7--7--7--3--3--5--5-------|
E|--------------------------------------------------------|
Part 1:"He's to dumb...."
Part 2:"And move boldly..."


Verse 2 part 3 (Guitar A, Palm mute)
e|--------------------------------------------------------|
B|--------------------------------------------------------|
G|--------------------------------------------------------|
D|--12-12-12-12--7--7--7--7--8--8--8--8--5--5--5--5-------|
A|--10-10-10-10--5--5--5--5--6--6--6--6--3--3--3--3-------|
E|--------------------------------------------------------|
"He likes naps..."


Verse 2 part 4 (Guitar A, Palm mute)
e|--------------------------------------------------------|
B|--------------------------------------------------------|
G|--------------------------------------------------------|
D|--12-12-12-12--7--7--7--7--8--8--8--8-------------------|
A|--10-10-10-10--5--5--5--5--6--6--6--6-------------------|
E|--------------------------------------------------------|
"He may be from...."


Verse2 Guitar B parts 3&4
(Guitar B is quiet until part 3 of the verse)
(Play as up+downstrokes together quickly, listen to the
song and you'll figure it out)
(Repeat)
e|--------------------------------------------------------|
B|--------------------------------------------------------|
G|--12-12--%--12-12--%--12-12--%--12-12--%----------------|
D|--12-12--%--12-12--%--12-12--%--12-12--%----------------|
A|--10-10--%--10-10--%--10-10--%--10-10--%----------------|
E|--------------------------------------------------------|
"He' likes naps..."

The end
(Melvin plays the first note on "president")
e|---------------------------------------------------------------|
B|---------------------------------------------------------------|
G|---------------4~----------------------------------------------|
D|-------------5~------------------------------------------------|
A|-----------5~--------------------------------------------------|
E|-3-3-3-3-3~----------------------------------------------------|
PM . . . .
"He's our president."

That's everything...I hope.
Добавлено: 18.03.2012
Другие материалы по этой песне:

Страница создана 10.03.2012
http://primanota.ru/nofx/idiot-son-of-an-asshole-chords.htm
Привет, Гость.
Предлагаем пройти революционный курс по гитаре.
Подарок от PrimaNota.Ru, забирай!