PrimaNota.ru - самый крупный в мире бесплатный архив песенных текстов, аккордов, табулатур и нот


Nofx - Id - текст песни, таба, бас-таба, видео

Регистрация Запомнить меня
Войти через:  Facebook Google Twitter Vk Yandex Mail.ru

Nofx - Id - текст песни, таба, бас-таба, видео

Печатать
Просмотров: 172
ID by NOFX. Album: Maximum Rocknroll (1988?)                              1/2
Typical MR-song with strange ending.
:
# intro #   !pick-slide!
E------------------------------------------------------|
B------------------------------------------------------|
G-------------7-------------9-------------7------------|
D---9--7-9--9-7-7-9--7-9--9-9-9-9--7-9--9-7-7-9--7-9---|
A---9--7-9--9-5-7-9--7-9--9-7-9-9--7-9--9-5-7-9--7-9---|
E---7--5-7--7---5-7--5-7--7---7-7--5-7--7---5-7--5-7---|
:
# verse #   *=play 6X
E----------------------------------------------------------------------------|
B----------------------------------------------------------------------------|
G----*-----------*-----------*-----------------------*-----------*-----------|
D---9-----------7-----------9-----------5--4-5--4-5-9-----------7-----------9|
A---9-----------7-----------9-----------5--4-5--4-5-9-----------7-----------9|
E---7-----------5-----------7-----------3--2-3--2-3-7-----------5-----------7|
:
# verse2 #  *=play 6X   !rhythm changes!
E-------------------------------|
B-------------------------------|
G----*---*---*---*---*---*---*--|
D---7---9---7---9---7---9---7---|
A---7---9---7---9---7---9---7---|
E---5---7---5---7---5---7---5---|
:
# verse3 #        *=play 6X    ()=play 2X
E------------------------------(-------------------X2------------)-|
B------------------------------(-------------*-------------------)-|
G----------7--9-9--------7--9-9(11-11-12-11-7------11-11-12-11--*)-|
D---9-9--9-7--9-9-9-9--9-7--9-9(11-11-12-11-7------11-11-12-11-9-)-|
A---9-9--9-5--7-7-9-9--9-5--7-7(-9--9-10--9-5-------9--9-10--9-9-)-|
E---7-7--7--------7-7--7-------(-------------------------------7-)-|
:
# bridge # X2   *=play 8X palm-muted
E-------------------------------------------|
B-------------------------------------------|
G---7-7--7---------*------7-7--7-9--9-9--*--|
D---7-7--7-7-7--7-9-------7-7--7-9--9-9-9---|
A---5-5--5-7-7--7-9-------5-5--5-7--7-7-9---|
E----------5-5--5-7---------------------7---|
:
# verse4 # X2 *=play 6X   #=play 6X only first time
E-------------------------------------------|
B-------------------------------------------|
G----------7-7--7--*---------------------#--|
D---5-5--5-7-7--7-9-------5-5--5-7-7--7-9---|
A---5-5--5-5-5--5-9-------5-5--5-7-7--7-9---|
E---3-3--3--------7-------3-3--3-5-5--5-7---|
:
# bridge2 #                                                                 >
E--------------------------------------------------------------------------->
B--------------------------------------------------------------------------->
G---7-----------------------------7-----------------------------7----------->
D---7-------9-------------9-------7-------9-------------9-------7-------9--->
A---5-------9-----8-7-----9-------5-------9-----9-7-10--9-------5-------9--->
E-----------7----------8--7---------------7-------------7---------------7--->
>bridge2
>---------------------------------------------|
>---------------------------------------------|
>--10-9-------------7------------11-9-12------|
>-------10--9-------7-------9-------------9---|
>-----------9-------5-------9-------------9---|
>-----------7---------------7-------------7---|
:
>>>>>>>>>>>>>to next page...
:
ID                                                                        2/2
:
# verse5 # X3    *=play 6X
E-----------------------------------------|
B-----------------*--------------------*--|
G-------------7--9------12-12-12-11-9-7---|
D---9-9--9-9--7--9------12-12-12-11-9-7---|
A---9-9--9-9--5--7------10-10-10--9-7-5---|
E---7-7--7-7------------------------------|
:
# outro #
E----------------------------------------------------------------------------|
B----------------------------------------------------------------------------|
G-------------7--------------------------------------------------------------|
D---9--7-9--9-7-7-9--7-9---------------PAUSE-----------------------------9---|
A---9--7-9--9-5-7-9--7-9-------------------------------------------------9---|
E---7--5-7--7---5-7--5-7-------------------------------------------------7---|
:
Got it?
Tabbed by Jussi Heinonen 16.04.1998.
Добавлено: 02.07.2012
Другие материалы по этой песне:
  • Аккорды и текст

Страница создана 27.05.2012
http://primanota.ru/nofx/id-chords.htm
Привет, Гость.
Предлагаем пройти революционный курс по гитаре.
Подарок от PrimaNota.Ru, забирай!