PrimaNota.ru - самый крупный в мире бесплатный архив песенных текстов, аккордов, табулатур и нот


Nofx - How Did The Cat Get So Fat - таба, видео

Регистрация Запомнить меня
Войти через:  Facebook Google Twitter Vk Yandex Mail.ru

Nofx - How Did The Cat Get So Fat - таба, видео

Печатать
Просмотров: 128
Artist: NOFX
Song: How did the cat get so fat
Tabbed out by: Steve Michaels AKA Tyler Durden on No-eff-eks.com forum.
E-mail: tikitikislimshady@hotmail.com

I don't usually tab out songs and publish them...
I just noticed there aren't any version of this song tabbed out on the net.
I also like this song to enhance your improvisation from these fun licks.
Enjoy.

        Chords used:

  G    E1   E    C    D
---  ---  ---  ---  ---
---  ---  ---  ---  ---
---  -9-  ---  -5-  -7-
-5-  -9-  -2-  -5-  -7-
-5-  -7-  -2-  -3-  -5-
-3-  ---  -0-  ---  ---


                       NOFX - How did the cat get so fat


Intro:

E-10--12--14-15--------------------------------------
B----------------12----15--12------------------------
G-------------------14--------11--12-----------------
D------------------------------------14--12----------
A--------------------------------------------14------
E----------------------------------------------------

E----------------------------------------------------
B-12-12-------------12-------------------------------
G--------14--12--14----14--12----12------------------
D-----------------------------14----14--12-14--------
A----------------------------------------------------
E----------------------------------------------------

E----------------------------------------------------
B-12-13--15--13--12--13--12-----10B(12)--------------
G---------------------------14-----------14-12---12--
D----------------------------------------------14----
A----------------------------------------------------
E----------------------------------------------------


Verse :

G, D, E1, C

Chorus:

G, D, E, C

Outro Solo:

-12-12--------------------------------------------------------------------------
-------15--12--13--15--13--12--13-12----11B(12)---12-13-12-13--15-13------------
-------------------------------------14------------------------------12--14--12-
--------------------------------------------------------------------------------
--------------------------------------------------------------------------------
--------------------------------------------------------------------------------


Want to comment on my accuracy? - tikitikislimshady@hotmail.com

     
Добавлено: 16.06.2013
Другие материалы по этой песне:
  • Аккорды и текст

Страница создана 16.06.2013
http://primanota.ru/nofx/how-did-the-cat-get-so-fat-chords.htm
Привет, Гость.
Предлагаем пройти революционный курс по гитаре.
Подарок от PrimaNota.Ru, забирай!