PrimaNota.ru - самый крупный в мире бесплатный архив песенных текстов, аккордов, табулатур и нот


Nofx - Hotel California - аккорды и текст, таба, видео

Регистрация Запомнить меня
Войти через:  Facebook Google Twitter Vk Yandex Mail.ru

Nofx - Hotel California - аккорды и текст, таба, видео

Печатать
Просмотров: 273
Hotel California
Nofx
Apparently-To: rcwoods@post-office.nevada.edu
Status: RO

This is the solo to the acoustic version of Hotel California as it appears on
Hell Freezes Over.  Some parts are not totally correct, since I can't play that
fast, but the general idea is right.  This solo is actually two guitars taking
turns, so if you want to do an accurate version, 2 guitars are a requirement.
Please send any corrections or additions, and especially comments since this did
take me almost 3 hours to do.  Have a blast!


HOTEL CALIFORNIA	Solo
The Eagles
written by Don Felder/Don Henley/Glenn Frey
solo by Don Felder & Joe Walsh

background chords:  Bm  F#  A  E  G  D  Em  F#  (same as verse chords)

e:-------------------------------------------9-10-12-12-12-12-10-9----10-9---|
B:-----------------------------------------------------------------12------12|
G:-------9-9-9-9-------9-----------------------------------------------------|
D:8-9-11---------12-11---12-11-12-11-9-8-------------------------------------|
A:---------------------------------------------------------------------------|
E:---------------------------------------------------------------------------|


                                                                    P  P
e:-------------------------------------------------------0----x--------------|
B:-10-9--------------------------------------------------x----7--------------|
G:------11-9----------------------------------4-2-4------4----x--------------|
D:-----------11-9-----------------2-0-4-2-5-4-------4----5----8---8-11-8-9-9-|
A:--------------11--------0-2-5-4------------------------7----9--------------|
E:--------------------2-3--------------------------------7----9--------------|


        H P P H          H P   H P    H P
e:----------------------------------------------------9-7-6-14~--7----------|
B:------7-8-7-5-7---5-7--5-7-5----------------------7---------------7-7-7-5-5|
G:---7------------7------------7-9-7--6-7-6-----6-7--------------------------|
D:11----------------------------------------9-8------------------------------|
A:---------------------------------------------------------------------------|
E:---------------------------------------------------------------------------|


                 H P             H P P H         H P P H
e:---------------------------------------------------------------------------|
B:-5----------------------------------------------------------3-5-7-7-7-8-7-5|
G:---7-7-6-4-----6-7-6-4----------------------4--4-6-4-3-4--6----------------|
D:-----------7-6---------6----4--5-7-5-4-5--7--------------------------------|
A:--------------------------7------------------------------------------------|
E:---------------------------------------------------------------------------|


                                   H P             P P H H
e:-------------3--5--7--10--12-----------------------------------------------|
B:-7---------5------------------7--7-8-5--7-8-7-5-------------------5--7--7--|
G:---7-----7---------------------------------------9-7-6-7-9--4-6-7-----7--7-|
D:-----5-7-------------------------------------------------------------------|
A:---------------------------------------------------------------------------|
E:---------------------------------------------------------------------------|

e:---------------------------------------------------------------------------|
B:7--7--7--5--5--5--/15~--5--5--5--5--5--3--3--3--/12~--3--3--3--3--3--------|
G:-7--7--7--6--6--6-/16~---6--6--6--6--6--4--4--4-/13~---4--4--4--4--4-2--2--|
D:----------------------------------------------------------------------4--4-|
A:---------------------------------------------------------------------------|
E:---------------------------------------------------------------------------|


e:-------------------------------------------2-2-2-2-|
B:---------0--0--0--0--0---2--3--5--7--5--5--3-3-3-3-|
G:2--/11~---0--0--0--0--0--3--4--6--7--6--6--4-4-4-4-|
D:-4-/12~------------------------------------4-4-4-4-|
A:-------------------------------------------2-2-2-2-|
E:---------------------------------------------------|


P.S.  If anyone wishes to send me an electric guitar, I will tab out the solo to the
	electric version also.  I promise.
Добавлено: 13.03.2012
Другие материалы по этой песне:
  • Аккорды и текст

Страница создана 13.03.2012
http://primanota.ru/nofx/hotel-california-chords.htm
Привет, Гость.
Предлагаем пройти революционный курс по гитаре.
Подарок от PrimaNota.Ru, забирай!