PrimaNota.ru - самый крупный в мире бесплатный архив песенных текстов, аккордов, табулатур и нот


Nofx - Hotdog In A Halllway - бас-таба, видео

Регистрация Запомнить меня
Войти через:  Facebook Google Twitter Vk Yandex Mail.ru

Nofx - Hotdog In A Halllway - бас-таба, видео

Печатать
Просмотров: 104
Уроки эстрадного вокала в Санкт-Петербурге
+++++++++++++++++++++++++++++
| NOFX- HotDog In A Hallway |
+++++++++++++++++++++++++++++

EADG

Intro*For the slide, do it slowy and gently
1.
G|-------------------------------------------------------------------------|
D|-------------------------------------------------------------------------|
A|-------------------------------------------------------------------------|
E|-5h6-5h6-5~\1----5h6-5h6-5~\1----5h6-5h6-5~\1----5h6-5h6-5~\1----5h6-5h6-|

2.
G|-------------------------------------------------------------|
D|-------------------------------------------------------------|
A|-----4~-45~-5--------4~-45~-5--------4~-45~-5--------4~-4-5x-|
E|-5~-5--------6~-65~-5--------6~-65~-5--------6~-65~-5--------|

Verse
"She'll have another piece of pie.."
3.
G|--------------------------------------------------------------------------|
D|--------------------------------------------------------------------------|
A|------4444-5555-----------4444-5555-----------4444-5555-7777------4444-5x-|
E|-5555-----------6666-5555-----------6666-5555----------------5555---------|

"She's got a couple of pony kegs.."
4.
G|--------------------------------------------------------------------------|
D|--------------------------------------------------------------------------|
A|------4444-5555-----------4444-5555-----------4444-5555-7777------4444-5x-|
E|-5555-----------6666-5555-----------6666-5555----------------5555---------|

Chorus
"Yeah Im a butter, she's my bread.."
5.
G|---------------------------------------------------------------------------------|
D|---------------------------------------------------------------------------------|
A|------4444-5555---------------------5555------4444-5555-7777------4444-5555------|
E|-5555-----------6666-5555-0000-1111------5555----------------5555-----------6666-|

"And when her flesh begins to sag.." 
6.
G|----------------------------------------------------------------------------|
D|----------------------------------------------------------------------------|
A|------4444-5555---------------------5555------4444-5555-7777------4444-5555-|
E|-5555-----------6666-5555-0000-1111------5555----------------5555-----------|

Outro
7.
G|-----------------------------------------|
D|-----------------------------------------|
A|-----------------------------------------|
E|-5h6-5h6-5~\1----5h6-5h6-5~\1----5h6-5h6-|

Verse
"I always know just where she sat"
8.
G|-------------------------------------------------------------------------|
D|-------------------------------------------------------------------------|
A|-------------------------------------------------------------------------|
E|-5h6-5h6-5~\1----5h6-5h6-5~\1----5h6-5h6-5~\1----5h6-5h6-5~\1----5h6-5h6-|

"Shes my phillie, Im her stud.."
9.
G|-------------------------------------------------------------------------|
D|-------------------------------------------------------------------------|
A|-------------------------------------------------------------------------|
E|-5h6-5h6-5~\1----5h6-5h6-5~\1----5h6-5h6-5~\1----5h6-5h6-5~\1----5h6-5h6-|

Chorus
"She'll have another piece of pie..."
10.
G|---------------------------------------------------------------------------------|
D|---------------------------------------------------------------------------------|
A|------4444-5555---------------------5555------4444-5555-7777------4444-5555------|
E|-5555-----------6666-5555-0000-1111------5555----------------5555-----------6666-|

"Shes got a couple of pony kegs.." 
11.
G|----------------------------------------------------------------------------|
D|----------------------------------------------------------------------------|
A|------4444-5555---------------------5555------4444-5555-7777------4444-5555-|
E|-5555-----------6666-5555-0000-1111------5555----------------5555-----------|

Outro
"Doo..Doo doo do do.."
12.
G|---------------------------------------------------------------|
D|---------------------------------------------------------------|
A|-------------4~-45~-5--------4~-45~-5--------4~-45~-5----------|
E|-5h6-5h6-5~-5--------6~-65~-5--------6~-65~-5--------6~-6--5~~-|

There, I think its a great song :D
Please rate

Lyrics:


She'll have another piece of pie
She'll have a double reuben rye
She works hard at eating well
That's why I love her

She's got a couple of pony kegs
Her arms are bigger than my legs
And when she holds me I can't breathe
That's why I love her

I'm her butter she' my bread
She's like a mobile waterbed
And when I got on top of her
I can't touch the mattress

And when her flesh begins to sag
She's like a human sleeping bag
I feel so cozy safe and warm
She's my insulation

I always know just where she sat
And when she's on me I get flat
Some broken ribs a punctured lung
That's why I love her

She's my phillie I'm her stud
Her bean is bigger than my pud
It's like feeding a Tic-Tac to a whale
That's why I love her

She'll have another piece of pie
She'll have a double reuben rye
She works hard at eating well
That's why I love her

+++++++++++++++++++++++++++++++++
| RaiLeff                       |
| Underground__Dora@Hotmail.Com |
+++++++++++++++++++++++++++++++++

| /  slide up
| \  slide down
| h  hammer-on
| p  pull-off
| ~  vibrato
| +  harmonic
| x  Mute note
Добавлено: 07.05.2012
Другие материалы по этой песне:
  • Аккорды и текст

Страница создана 07.05.2012
http://primanota.ru/nofx/hotdog-in-a-halllway-chords.htm
Привет, Гость.
Предлагаем пройти революционный курс по гитаре.
Подарок от PrimaNota.Ru, забирай!