PrimaNota.ru - самый крупный в мире бесплатный архив песенных текстов, аккордов, табулатур и нот


Nofx - Hotdag In A Hallway - аккорды и текст, видео

Регистрация Запомнить меня
Войти через:  Facebook Google Twitter Vk Yandex Mail.ru

Nofx - Hotdag In A Hallway - аккорды и текст, видео

Печатать
Просмотров: 65
Hotdag In A Hallway
Nofx
This is almost the same as a previous tab but a few minor changes that i 
find sound a bit more like the real song. For anyone who likes punk this is 
a quick easy song to learn, and it has a great sound! Enjoy!

INTRO:

[dist, wahwah]
   A5 Bb5 A5 Bb5 A5
e|-----------------xxxxxxxxxxxxx-|
B|-----------------xxxxxxxxxxxxx-|
G|-----------------xxxxxxxxxxxxx-|
D|-7/(8)-7/(8)--7--xxxxxxxxxxxxx-|
A|-7/(8)-7/(8)--7--xxxxxxxxxxxxx-|
E|-5/(6)-5/(6)--5--xxxxxxxxxxxxx-|


[clean]
    A5   C#5  D5   Bb5    A5   C#5  D5
e|---------------------|--------------------|
B|---------6----7------|---------6----7-----|
G|----6---6----7-----7-|----6---6----7------|
D|---7---6----7-----8--|---7---6----7----xx-|
A|--7---4----5-----8---|--7---4----5-----xx-|
E|-5--------------6----|-5------------------|

VERSE:

[clean]
    A    C#   D    Bb
e|-5-55-4-44-5-55-6666-|
B|-5-55-6-66-7-77-6666-|
G|-6-66-6-66-7-77-5555-|
D|-7-77-6-66-7-77-8888-|
A|-7-77-4-44-5-55-8888-|
E|-5-55-----------6666-|

[dist]

   A    C#/Bb D    Bb
e|---------------------|
B|---------------------|
G|------6-66-7-77------|
D|-7-77-6-66-7-77-8888-|
A|-7-77-4-44-5-55-8888-|
E|-5-55-----------6666-|
     
Добавлено: 17.07.2013
Другие материалы по этой песне:
  • Аккорды и текст

Страница создана 17.07.2013
http://primanota.ru/nofx/hotdag-in-a-hallway-chords.htm
Привет, Гость.
Предлагаем пройти революционный курс по гитаре.
Подарок от PrimaNota.Ru, забирай!