PrimaNota.ru - самый крупный в мире бесплатный архив песенных текстов, аккордов, табулатур и нот


Nofx - Green Corn - аккорды и текст, таба, бас-таба, видео

Регистрация Запомнить меня
Войти через:  Facebook Google Twitter Vk Yandex Mail.ru

Nofx - Green Corn - аккорды и текст, таба, бас-таба, видео

Печатать
Просмотров: 298
Уроки эстрадного вокала в Санкт-Петербурге
Авторы текста: NOFX
Green Corn
Nofx
alright this isnt 100% perfect but id give it an 80%, all the main parts and the 
solo are right, but i might be missing some fills and shit, but u can get the idea 
from this, so here goes....

INTRO:
A - C# - C - F - A
(octaves)A - G - A - D - C

A (hammer this for a while)
C-B-C-B-C-D-A (could be wrong right there)

A                    F                                  C
Sometimes I think of all the places where I don't wanna go
G                                     F           C
Then I think of all the things that I never wanna do
           A                F                         C
And when I think of all the people that I don't wanna meet
  G                 F     C
I close my eyes and go to sleep

(octaves)A - G - A - D - C


Tully, baby, you're trapped behind your golden bars
I'm the prince of poverty I hang around in bars
Your life's a Mercedes, a mansion with a pool
My life's on a bus stop just waiting for some fuel

A     G       F            E
aaaaaaaaaahhhhhhhhhhhh
A----(hammer)

solo: 

e|---------------------------------------------12----------------------------|
B|---------------------------8--10-12-12--15-----15-13--------12-13-12-15-12-|
G|------------------------7-9-10-----------------------14--14----------------|
D|--------------5-7--9-10----------------------------------------------------|
A|-------5-7-8---------------------------------------------------------------|
E|--5-7-8--------------------------------------------------------------------|

e|-------------------------------------17-15----------15-17------------------|
B|-------------------------------------------17-15-17------------------------|
G|-13-12-(Do.that.a.bunch.of.times)------------------------------------------|
D|---------------------------------------------------------------------------|
A|---------------------------------------------------------------------------|
E|---------------------------------------------------------------------------|

                    
Your obviousness disgusts me I see thru your macho lies
I'll fight everything you stand for
There's something in your purse baby, my head is getting sore
Maybe what we had was just green corn

thats it...once again im missing fills but otherwise i think thats good, im 
certain with the solo tho
....see ya in the pit....
Добавлено: 06.06.2012
Другие материалы по этой песне:

Страница создана 01.03.2012
http://primanota.ru/nofx/green-corn-chords.htm
Привет, Гость.
Предлагаем пройти революционный курс по гитаре.
Подарок от PrimaNota.Ru, забирай!