PrimaNota.ru - самый крупный в мире бесплатный архив песенных текстов, аккордов, табулатур и нот


Nofx - Getting High On The Down Low - текст песни, таба, бас-таба, видео

Регистрация Запомнить меня
Войти через:  Facebook Google Twitter Vk Yandex Mail.ru

Nofx - Getting High On The Down Low - текст песни, таба, бас-таба, видео

Печатать
Просмотров: 148
-------------------------------------------------------------------------------
                             NOFX - Getting High on the Down Low
-------------------------------------------------------------------------------
Tabbed by: Matthew Holmes Bennett 

Tuning: Standard

e|-------------------------------------|
B|-------------------------------------|
G|-------------------------------------|
D|--7--9--9--12--12--7--7--7--9--7--9--|
A|--7--9--9--12--12--7--7--7--9--7--9--|
E|--5--7--7--10--10--5--5--5--7--5--7--|

1st Time Only
e|-----------------------|
B|-----------------------|
G|--------7-----------9--|
D|--7--5--7--7--9--5--9--|
A|--7--5--5--7--9--5--7--|
E|--5--3-----5--7--3-----|

e|--------------------------------|
B|--------------------------------|
G|--------7--------------------9--|
D|--7--5--7--7--9--7--9--7--5--9--|
A|--7--5--5--7--9--7--9--7--5--7--|
E|--5--3-----5--7--5--7--5--3-----|

Solo
e|---------------------------------------------------------------------------|
B|---------------------------------------------------------10----------------|
G|---------------------------------7--------9^~~--9--7--9^-----^9-p-7---7----|
D|--9--9--9-p-7-----9--9--9-p-7-------9--7----------------------------9---9--|
A|---------------9--------------9--------------------------------------------|
E|---------------------------------------------------------------------------|

e|---------------------------------------------------------------------------|
B|---------------------------------------------------------------------------|
G|------7--9--9^--^9-p-7-----9^--^9-p-7-----7--------9^~~~~~--^9--7----------|
D|--/9--------------------9--------------9-----9--7------------------9-------|
A|---------------------------------------------------------------------------|
E|---------------------------------------------------------------------------|

e|------------------------------------|
B|--7--7--7--10--12~~~~~~~~~~~~~~~----|
G|--7--7--7--9------------------------|
D|------------------------------------|
A|------------------------------------|
E|------------------------------------|

After Solo
e|-----------------------------------------|
B|-----------------------------------------|
G|--------7--------------------7--9--7-----|
D|--7--5--7--7--9--7--9--7--5--7--9--7--5--|
A|--7--5--5--7--9--7--9--7--5--5--7--5--5--|
E|--5--3-----5--7--5--7--5--3-----------3--|


| /  slide up
| \  slide down
| h  hammer-on
| p  pull-off
| ~  vibrato
| +  harmonic
| x  Mute note
| x^ Bend note up
| ^x Bring note down from bend
===============================================================================
Добавлено: 27.07.2012
Другие материалы по этой песне:

Страница создана 17.03.2012
http://primanota.ru/nofx/getting-high-on-the-down-low-chords.htm
Привет, Гость.
Предлагаем пройти революционный курс по гитаре.
Подарок от PrimaNota.Ru, забирай!