PrimaNota.ru - самый крупный в мире бесплатный архив песенных текстов, аккордов, табулатур и нот


Nofx - Freedom Lika Shopping Cart - текст песни, бас-таба, видео

Регистрация Запомнить меня
Войти через:  Facebook Google Twitter Vk Yandex Mail.ru

Nofx - Freedom Lika Shopping Cart - текст песни, бас-таба, видео

Печатать
Просмотров: 116
# intro # 0:19 +=play 16X *=play 8X #=play 3X                       >
G------------------------------------------------------------------->
D----+---------------+---------------+---------------+-------------->
A//12--------------15--------------10--------------12--------------->
E------------------------------------------------------------------->
>intro
>-------------------------------------------------------------------|
>--/-*-----/#---/#---*-----/#---/#---+---------------*--------------|
>1012----1012-1012-15----1415-1415-10--------------12-------\\\\\\\\|
>-------------------------------------------------------------------|
:
# intro2 # 0:19 !play all notes 14-16X!
G---------------------------------------------------------------|
D---------------------------------------------------------------|
A---0-----3-----------0-----0-----3-----------------0-----0-----|
E---------------3-----------------------3-----0-----------------|
:
# verse # X2 !play all notes 16X!
G-----------------------------------|
D-----------------------------------|
A---0-------4-------5-------2-------|
E-----------------------------------|
:
# chorus # !play all notes 16X!
G-------------------------------------------------------------------|
D---------------------------------------------------------/12-------|
A-/12--------------10-------5-----/12-------------------------------|
E-----------0-------------------------------0-------3---------------|
:
Then play verseX2 and chorus (!last note only 8X!).
:
# bridge # !play all notes 5-7X! !end with first note!
G---------------------------------------------------|
D---------------------------------------------------|
A---------------------4-----5-----0-----2-----5-----|
E---5-----0-----2-----------------------------------|
:
# bridge2 # !play all notes 6-7X!
G--------------|-------|2X|-----------||
D--------------|----------------------||
A---9-----5----|0-----2-----9-----5---||
E--------------|----------------------||
:                       
Then play verse, chorus (!last note only 8X!) and bridge.  
:
# outro # X4 !play all notes 6-7X!
G-------------------------|
D-------------------------|
A---0-----2-----9-----5---|
E-------------------------|
:
Добавлено: 17.07.2012
Другие материалы по этой песне:
  • Аккорды и текст

Страница создана 20.06.2012
http://primanota.ru/nofx/freedom-lika-shopping-cart-chords.htm
Привет, Гость.
Предлагаем пройти революционный курс по гитаре.
Подарок от PrimaNota.Ru, забирай!