PrimaNota.ru - самый крупный в мире бесплатный архив песенных текстов, аккордов, табулатур и нот


Nofx - El Lay - текст песни, таба, видео

Регистрация Запомнить меня
Войти через:  Facebook Google Twitter Vk Yandex Mail.ru

Nofx - El Lay - текст песни, таба, видео

Печатать
Просмотров: 121
EL LAY by NOFX. Album: Ribbed (1991)
One of the coolest NOFX songs to play. Solo is great! (This song is also
known as "East Bay", but the solo is a little bit different in it.)
:
# main-riff #  X4         # verse #  *=play 4X   ()=play 4X
E----------------------|   E------------------------|
B----------------------|   B------------*---*-------|  > Then play
G------------5-5-------|   G--(-*---*--5---7-)------|    main-riff X2
D---7-7-3-3--5-5-5-5---|   D--(7---3---5---7-)--3---|    and verse
A---7-7-3-3--3-3-5-5---|   A--(7---3---3---5-)--3---|
E---5-5-1-1------3-3---|   E--(5---1---------)--1---|
:
# end-main-riff #  h=hammer-on \=slide down
E----------------------------------------|
B----------------------------------------|
G------------5-5-------------------------|  > Then play main-riff X2.
D---7-7-3-3--5-5-5-5---------------------|
A---7-7-3-3--3-3-5-5--5h7-5h7-5h7-3------|
E---5-5-1-1------3-3-----------------5\--|
:
# verse2 #  *=play 4X  ()=play 4X   # main-riff2 # X2
E------------------------|          E----------------------|
B------------*---*-------|          B----------------------|
G--(-*---*--7---9-)------|          G------------7-7-------| > Then play
D--(9---5---7---9-)--5---|          D---9-9-5-5--7-7-7-7---|   verse2.
A--(9---5---5---7-)--5---|          A---9-9-5-5--5-5-7-7---|
E--(7---3---------)--3---|          E---7-7-3-3------5-5---|
:
# solo # (verse2 at background) v=vibrato )=bend up  /=slide up
E-----------------------------------------------------------)--->
B------------------10-------)------------------12-10----10-10--->
G---11-9--------------11-9-11----------9/11-11-------11--------->
D---------12-9v---------------12-9v----------------------------->
A--------------------------------------------------------------->
E--------------------------------------------------------------->
: \=slide down
E-----------------------------|
B-----------------------------|
G---11-12v----11-12-11-9------|
D------------------------12\--|
A-----------------------------|
E-----------------------------|
:
# outro #   h=hammer-on
E---------------------------------------|
B---------------------------------------|
G------------7-7------------------------|
D---9-9-5-5--7-7-7-7--------------------|
A---9-9-5-5--5-5-7-7--7h9-7h9-7h9-5-----|
E---7-7-3-3------5-5----------------7\--|
:
Oh right!
Tabbed by Jussi Heinonen 5.10.1997.
Добавлено: 13.06.2012
Другие материалы по этой песне:

Страница создана 26.02.2012
http://primanota.ru/nofx/el-lay-chords.htm
Привет, Гость.
Предлагаем пройти революционный курс по гитаре.
Подарок от PrimaNota.Ru, забирай!